  0
SECTION
  2
HEADER
  9
$ACADVER
  1
AC1014
  9
$ACADMAINTVER
 70
     5
  9
$DWGCODEPAGE
  3
ANSI_1252
  9
$INSBASE
 10
0.0
 20
0.0
 30
0.0
  9
$EXTMIN
 10
-8.858709
 20
-8.873613
 30
0.0
  9
$EXTMAX
 10
704.805471
 20
447.831433
 30
0.0
  9
$LIMMIN
 10
0.0
 20
0.0
  9
$LIMMAX
 10
420.0
 20
297.0
  9
$ORTHOMODE
 70
     1
  9
$REGENMODE
 70
     1
  9
$FILLMODE
 70
     1
  9
$QTEXTMODE
 70
     0
  9
$MIRRTEXT
 70
     0
  9
$DRAGMODE
 70
     2
  9
$LTSCALE
 40
1.0
  9
$OSMODE
 70
    39
  9
$ATTMODE
 70
     1
  9
$TEXTSIZE
 40
3.5
  9
$TRACEWID
 40
0.05
  9
$TEXTSTYLE
  7
ROMANS
  9
$CLAYER
  8
0
  9
$CELTYPE
  6
BYLAYER
  9
$CECOLOR
 62
   256
  9
$CELTSCALE
 40
1.0
  9
$DELOBJ
 70
     1
  9
$DISPSILH
 70
     0
  9
$DIMSCALE
 40
1.0
  9
$DIMASZ
 40
2.5
  9
$DIMEXO
 40
1.5
  9
$DIMDLI
 40
5.0
  9
$DIMRND
 40
0.0
  9
$DIMDLE
 40
0.0
  9
$DIMEXE
 40
1.0
  9
$DIMTP
 40
0.0
  9
$DIMTM
 40
0.0
  9
$DIMTXT
 40
3.0
  9
$DIMCEN
 40
0.0
  9
$DIMTSZ
 40
0.0
  9
$DIMTOL
 70
     0
  9
$DIMLIM
 70
     0
  9
$DIMTIH
 70
     0
  9
$DIMTOH
 70
     0
  9
$DIMSE1
 70
     0
  9
$DIMSE2
 70
     0
  9
$DIMTAD
 70
     1
  9
$DIMZIN
 70
     8
  9
$DIMBLK
  1

  9
$DIMASO
 70
     1
  9
$DIMSHO
 70
     1
  9
$DIMPOST
  1

  9
$DIMAPOST
  1

  9
$DIMALT
 70
     0
  9
$DIMALTD
 70
     2
  9
$DIMALTF
 40
25.4
  9
$DIMLFAC
 40
1.0
  9
$DIMTOFL
 70
     1
  9
$DIMTVP
 40
0.0
  9
$DIMTIX
 70
     0
  9
$DIMSOXD
 70
     0
  9
$DIMSAH
 70
     0
  9
$DIMBLK1
  1

  9
$DIMBLK2
  1

  9
$DIMSTYLE
  2
STANDAARD
  9
$DIMCLRD
 70
   256
  9
$DIMCLRE
 70
   256
  9
$DIMCLRT
 70
     2
  9
$DIMTFAC
 40
0.75
  9
$DIMGAP
 40
1.0
  9
$DIMJUST
 70
     0
  9
$DIMSD1
 70
     0
  9
$DIMSD2
 70
     0
  9
$DIMTOLJ
 70
     1
  9
$DIMTZIN
 70
     8
  9
$DIMALTZ
 70
     8
  9
$DIMALTTZ
 70
     8
  9
$DIMFIT
 70
     0
  9
$DIMUPT
 70
     0
  9
$DIMUNIT
 70
     2
  9
$DIMDEC
 70
     2
  9
$DIMTDEC
 70
     2
  9
$DIMALTU
 70
     2
  9
$DIMALTTD
 70
     2
  9
$DIMTXSTY
  7
ROMANS
  9
$DIMAUNIT
 70
     0
  9
$LUNITS
 70
     2
  9
$LUPREC
 70
     2
  9
$SKETCHINC
 40
0.1
  9
$FILLETRAD
 40
10.0
  9
$AUNITS
 70
     0
  9
$AUPREC
 70
     2
  9
$MENU
  1
wtb2
  9
$ELEVATION
 40
0.0
  9
$PELEVATION
 40
0.0
  9
$THICKNESS
 40
0.0
  9
$LIMCHECK
 70
     0
  9
$BLIPMODE
 70
     0
  9
$CHAMFERA
 40
1.6
  9
$CHAMFERB
 40
2.5
  9
$CHAMFERC
 40
0.0
  9
$CHAMFERD
 40
0.0
  9
$SKPOLY
 70
     0
  9
$TDCREATE
 40
2452466.423157523
  9
$TDUPDATE
 40
2452466.667655173
  9
$TDINDWG
 40
0.0029642361
  9
$TDUSRTIMER
 40
0.0029642361
  9
$USRTIMER
 70
     1
  9
$ANGBASE
 50
0.0
  9
$ANGDIR
 70
     0
  9
$PDMODE
 70
     3
  9
$PDSIZE
 40
0.0
  9
$PLINEWID
 40
0.0
  9
$COORDS
 70
     2
  9
$SPLFRAME
 70
     0
  9
$SPLINETYPE
 70
     6
  9
$SPLINESEGS
 70
     8
  9
$ATTDIA
 70
     0
  9
$ATTREQ
 70
     1
  9
$HANDLING
 70
     1
  9
$HANDSEED
  5
1AB1
  9
$SURFTAB1
 70
     6
  9
$SURFTAB2
 70
     6
  9
$SURFTYPE
 70
     6
  9
$SURFU
 70
     6
  9
$SURFV
 70
     6
  9
$UCSNAME
  2

  9
$UCSORG
 10
0.0
 20
0.0
 30
0.0
  9
$UCSXDIR
 10
1.0
 20
0.0
 30
0.0
  9
$UCSYDIR
 10
0.0
 20
1.0
 30
0.0
  9
$PUCSNAME
  2

  9
$PUCSORG
 10
0.0
 20
0.0
 30
0.0
  9
$PUCSXDIR
 10
1.0
 20
0.0
 30
0.0
  9
$PUCSYDIR
 10
0.0
 20
1.0
 30
0.0
  9
$USERI1
 70
     0
  9
$USERI2
 70
     0
  9
$USERI3
 70
     0
  9
$USERI4
 70
     0
  9
$USERI5
 70
     0
  9
$USERR1
 40
0.0
  9
$USERR2
 40
0.0
  9
$USERR3
 40
0.0
  9
$USERR4
 40
0.0
  9
$USERR5
 40
0.0
  9
$WORLDVIEW
 70
     1
  9
$SHADEDGE
 70
     3
  9
$SHADEDIF
 70
    70
  9
$TILEMODE
 70
     1
  9
$MAXACTVP
 70
    16
  9
$PINSBASE
 10
0.0
 20
0.0
 30
0.0
  9
$PLIMCHECK
 70
     0
  9
$PEXTMIN
 10
1.000000E+20
 20
1.000000E+20
 30
1.000000E+20
  9
$PEXTMAX
 10
-1.000000E+20
 20
-1.000000E+20
 30
-1.000000E+20
  9
$PLIMMIN
 10
0.0
 20
0.0
  9
$PLIMMAX
 10
12.0
 20
9.0
  9
$UNITMODE
 70
     0
  9
$VISRETAIN
 70
     0
  9
$PLINEGEN
 70
     0
  9
$PSLTSCALE
 70
     0
  9
$TREEDEPTH
 70
  3020
  9
$PICKSTYLE
 70
     1
  9
$CMLSTYLE
  2
STANDARD
  9
$CMLJUST
 70
     0
  9
$CMLSCALE
 40
1.0
  9
$PROXYGRAPHICS
 70
     1
  9
$MEASUREMENT
 70
     1
  0
ENDSEC
  0
SECTION
  2
CLASSES
  0
CLASS
  1
LWPOLYLINE
  2
AcDbPolyline
  3
"AutoCAD"
 90
        0
280
     0
281
     1
  0
CLASS
  1
AMLOADER
  2
AMLoader
  3
AMAcad
 90
        0
280
     0
281
     0
  0
ENDSEC
  0
SECTION
  2
TABLES
  0
TABLE
  2
VPORT
  5
8
100
AcDbSymbolTable
 70
     2
  0
VPORT
  5
1AB0
100
AcDbSymbolTableRecord
100
AcDbViewportTableRecord
  2
*ACTIVE
 70
     0
 10
0.0
 20
0.0
 11
1.0
 21
1.0
 12
347.973381
 22
219.47891
 13
0.0
 23
0.0
 14
2.5
 24
2.5
 15
5.0
 25
5.0
 16
0.0
 26
0.0
 36
1.0
 17
0.0
 27
0.0
 37
0.0
 40
461.846191
 41
1.650376
 42
50.0
 43
0.0
 44
0.0
 50
0.0
 51
0.0
 71
     0
 72
 20000
 73
     1
 74
     0
 75
     0
 76
     0
 77
     0
 78
     1
  0
ENDTAB
  0
TABLE
  2
LTYPE
  5
5
100
AcDbSymbolTable
 70
     1
  0
LTYPE
  5
12
100
AcDbSymbolTableRecord
100
AcDbLinetypeTableRecord
  2
BYBLOCK
 70
     0
  3

 72
    65
 73
     0
 40
0.0
  0
LTYPE
  5
13
100
AcDbSymbolTableRecord
100
AcDbLinetypeTableRecord
  2
BYLAYER
 70
     0
  3

 72
    65
 73
     0
 40
0.0
  0
LTYPE
  5
14
100
AcDbSymbolTableRecord
100
AcDbLinetypeTableRecord
  2
CONTINUOUS
 70
     0
  3
Solid line
 72
    65
 73
     0
 40
0.0
  0
ENDTAB
  0
TABLE
  2
LAYER
  5
2
100
AcDbSymbolTable
 70
     4
  0
LAYER
  5
F
100
AcDbSymbolTableRecord
100
AcDbLayerTableRecord
  2
0
 70
     0
 62
     8
  6
CONTINUOUS
  0
LAYER
  5
993
100
AcDbSymbolTableRecord
100
AcDbLayerTableRecord
  2
VHH-050
 70
     0
 62
     4
  6
CONTINUOUS
  0
LAYER
  5
994
100
AcDbSymbolTableRecord
100
AcDbLayerTableRecord
  2
VHH-025
 70
     0
 62
     7
  6
CONTINUOUS
  0
LAYER
  5
995
100
AcDbSymbolTableRecord
100
AcDbLayerTableRecord
  2
VHH-070
 70
     0
 62
     4
  6
CONTINUOUS
  0
ENDTAB
  0
TABLE
  2
STYLE
  5
3
100
AcDbSymbolTable
 70
     2
  0
STYLE
  5
10
100
AcDbSymbolTableRecord
100
AcDbTextStyleTableRecord
  2
STANDARD
 70
     0
 40
0.0
 41
1.0
 50
0.0
 71
     0
 42
15.0
  3
txt
  4

  0
STYLE
  5
1C
100
AcDbSymbolTableRecord
100
AcDbTextStyleTableRecord
  2
ROMANS
 70
     0
 40
0.0
 41
1.0
 50
0.0
 71
     0
 42
3.5
  3
romans
  4

  0
ENDTAB
  0
TABLE
  2
VIEW
  5
6
100
AcDbSymbolTable
 70
     2
  0
VIEW
  5
600
100
AcDbSymbolTableRecord
100
AcDbViewTableRecord
  2
VIEW0
 70
     0
 40
297.0
 10
210.0
 20
148.5
 41
420.0
 11
0.0
 21
0.0
 31
1.0
 12
0.0
 22
0.0
 32
0.0
 42
50.0
 43
0.0
 44
0.0
 50
0.0
 71
     0
  0
VIEW
  5
601
100
AcDbSymbolTableRecord
100
AcDbViewTableRecord
  2
VIEW1
 70
     0
 40
297.0
 10
210.0
 20
148.5
 41
420.0
 11
0.0
 21
0.0
 31
1.0
 12
0.0
 22
0.0
 32
0.0
 42
50.0
 43
0.0
 44
0.0
 50
0.0
 71
     0
  0
ENDTAB
  0
TABLE
  2
UCS
  5
7
100
AcDbSymbolTable
 70
     0
  0
ENDTAB
  0
TABLE
  2
APPID
  5
9
100
AcDbSymbolTable
 70
     3
  0
APPID
  5
11
100
AcDbSymbolTableRecord
100
AcDbRegAppTableRecord
  2
ACAD
 70
     0
  0
APPID
  5
37E
100
AcDbSymbolTableRecord
100
AcDbRegAppTableRecord
  2
ADMEPROFILELINK
 70
     0
  0
APPID
  5
974
100
AcDbSymbolTableRecord
100
AcDbRegAppTableRecord
  2
AMACAD
 70
     0
  0
ENDTAB
  0
TABLE
  2
DIMSTYLE
  5
A
100
AcDbSymbolTable
 70
     2
  0
DIMSTYLE
105
4E
100
AcDbSymbolTableRecord
100
AcDbDimStyleTableRecord
  2
STANDARD
 70
     0
  3

  4

  5

  6

  7

 40
1.0
 41
2.2
 42
1.5
 43
7.0
 44
1.2
 45
0.0
 46
0.0
 47
0.0
 48
0.0
140
2.5
141
-3.0
142
0.0
143
25.4
144
1.0
145
0.0
146
1.0
147
0.5
 71
     0
 72
     0
 73
     0
 74
     0
 75
     0
 76
     0
 77
     1
 78
     8
170
     0
171
     2
172
     1
173
     0
174
     0
175
     0
176
   256
177
   256
178
     2
270
     2
271
     4
272
     4
273
     2
274
     2
340
10
275
     0
280
     0
281
     0
282
     0
283
     1
284
     0
285
     0
286
     0
287
     3
288
     0
  0
DIMSTYLE
105
190
100
AcDbSymbolTableRecord
100
AcDbDimStyleTableRecord
  2
STANDAARD
 70
     0
  3

  4

  5

  6

  7

 40
1.0
 41
2.5
 42
1.5
 43
5.0
 44
1.0
 45
0.0
 46
0.0
 47
0.0
 48
0.0
140
3.0
141
0.0
142
0.0
143
25.4
144
1.0
145
0.0
146
0.75
147
1.0
 71
     0
 72
     0
 73
     0
 74
     0
 75
     0
 76
     0
 77
     1
 78
     8
170
     0
171
     2
172
     1
173
     0
174
     0
175
     0
176
   256
177
   256
178
     2
270
     2
271
     2
272
     2
273
     2
274
     2
340
1C
275
     0
280
     0
281
     0
282
     0
283
     1
284
     8
285
     8
286
     8
287
     0
288
     0
  0
ENDTAB
  0
TABLE
  2
BLOCK_RECORD
  5
1
100
AcDbSymbolTable
 70
     4
  0
BLOCK_RECORD
  5
18
100
AcDbSymbolTableRecord
100
AcDbBlockTableRecord
  2
*MODEL_SPACE
  0
BLOCK_RECORD
  5
15
100
AcDbSymbolTableRecord
100
AcDbBlockTableRecord
  2
*PAPER_SPACE
  0
BLOCK_RECORD
  5
1B2
100
AcDbSymbolTableRecord
100
AcDbBlockTableRecord
  2
TEK_INFO
  0
BLOCK_RECORD
  5
984
100
AcDbSymbolTableRecord
100
AcDbBlockTableRecord
  2
A$C7A7B4A19
  0
BLOCK_RECORD
  5
989
100
AcDbSymbolTableRecord
100
AcDbBlockTableRecord
  2
A$C605007EB
  0
BLOCK_RECORD
  5
98E
100
AcDbSymbolTableRecord
100
AcDbBlockTableRecord
  2
A$C32063EEB
  0
ENDTAB
  0
ENDSEC
  0
SECTION
  2
BLOCKS
  0
BLOCK
  5
46
100
AcDbEntity
  8
0
100
AcDbBlockBegin
  2
*MODEL_SPACE
 70
     0
 10
0.0
 20
0.0
 30
0.0
  3
*MODEL_SPACE
  1

  0
ENDBLK
  5
47
100
AcDbEntity
  8
0
100
AcDbBlockEnd
  0
BLOCK
  5
44
100
AcDbEntity
 67
     1
  8
0
100
AcDbBlockBegin
  2
*PAPER_SPACE
 70
     0
 10
0.0
 20
0.0
 30
0.0
  3
*PAPER_SPACE
  1

  0
ENDBLK
  5
45
100
AcDbEntity
 67
     1
  8
0
100
AcDbBlockEnd
  0
BLOCK
  5
1B9
100
AcDbEntity
  8
0
100
AcDbBlockBegin
  2
TEK_INFO
 70
     2
 10
0.0
 20
0.0
 30
0.0
  3
TEK_INFO
  1

  0
ATTDEF
  5
276
100
AcDbEntity
  8
0
100
AcDbText
 10
15.0
 20
31.5
 30
0.0
 40
2.5
  1
A3
  7
ROMANS
100
AcDbAttributeDefinition
  3

  2
FORMAAT
 70
     9
  0
ATTDEF
  5
277
100
AcDbEntity
  8
0
100
AcDbText
 10
15.0
 20
27.5
 30
0.0
 40
2.5
  1
hor
  7
ROMANS
100
AcDbAttributeDefinition
  3

  2
POSITIE
 70
     9
  0
ATTDEF
  5
278
100
AcDbEntity
  8
0
100
AcDbText
 10
15.0
 20
23.5
 30
0.0
 40
2.5
  1
1
  7
ROMANS
100
AcDbAttributeDefinition
  3

  2
AANTAL
 70
     9
  0
ATTDEF
  5
279
100
AcDbEntity
  8
0
100
AcDbText
 10
15.0
 20
19.5
 30
0.0
 40
2.5
  1
1
  7
ROMANS
100
AcDbAttributeDefinition
  3

  2
TEKSCHAAL
 70
     9
  0
ATTDEF
  5
27A
100
AcDbEntity
  8
0
100
AcDbText
 10
15.0
 20
15.5
 30
0.0
 40
2.5
  1
1
  7
ROMANS
100
AcDbAttributeDefinition
  3

  2
SNAPSCHAAL
 70
     9
  0
ATTDEF
  5
27B
100
AcDbEntity
  8
0
100
AcDbText
 10
15.0
 20
11.5
 30
0.0
 40
2.5
  1
1
  7
ROMANS
100
AcDbAttributeDefinition
  3

  2
BLADAANTAL
 70
     9
  0
ENDBLK
  5
1BA
100
AcDbEntity
  8
0
100
AcDbBlockEnd
  0
BLOCK
  5
987
100
AcDbEntity
  8
0
100
AcDbBlockBegin
  2
A$C7A7B4A19
 70
     0
 10
0.0
 20
0.0
 30
0.0
  3
A$C7A7B4A19
  1

  0
LINE
  5
985
100
AcDbEntity
  8
VHH-050
100
AcDbLine
 10
0.000002
 20
17.677669
 30
0.0
 11
35.355341
 21
17.677669
 31
0.0
  0
LINE
  5
986
100
AcDbEntity
  8
VHH-050
100
AcDbLine
 10
17.677671
 20
-0.000001
 30
0.0
 11
17.677671
 21
35.355338
 31
0.0
  0
ENDBLK
  5
988
100
AcDbEntity
  8
0
100
AcDbBlockEnd
  0
BLOCK
  5
98C
100
AcDbEntity
  8
0
100
AcDbBlockBegin
  2
A$C605007EB
 70
     0
 10
0.0
 20
0.0
 30
0.0
  3
A$C605007EB
  1

  0
LINE
  5
98A
100
AcDbEntity
  8
VHH-050
100
AcDbLine
 10
0.000002
 20
25.000002
 30
0.0
 11
25.000002
 21
0.000002
 31
0.0
  0
LINE
  5
98B
100
AcDbEntity
  8
VHH-050
100
AcDbLine
 10
0.000002
 20
0.000002
 30
0.0
 11
25.000002
 21
25.000002
 31
0.0
  0
ENDBLK
  5
98D
100
AcDbEntity
  8
0
100
AcDbBlockEnd
  0
BLOCK
  5
991
100
AcDbEntity
  8
0
100
AcDbBlockBegin
  2
A$C32063EEB
 70
     0
 10
0.0
 20
0.0
 30
0.0
  3
A$C32063EEB
  1

  0
CIRCLE
  5
98F
100
AcDbEntity
  8
VHH-050
100
AcDbCircle
 10
8.838839
 20
8.838837
 30
0.0
 40
1.838835
  0
CIRCLE
  5
990
100
AcDbEntity
  8
VHH-050
100
AcDbCircle
 10
8.838839
 20
8.838837
 30
0.0
 40
8.838835
  0
ENDBLK
  5
992
100
AcDbEntity
  8
0
100
AcDbBlockEnd
  0
ENDSEC
  0
SECTION
  2
ENTITIES
  0
INSERT
  5
27C
100
AcDbEntity
  8
0
100
AcDbBlockReference
 66
     1
  2
TEK_INFO
 10
0.0
 20
0.0
 30
0.0
  0
ATTRIB
  5
27D
100
AcDbEntity
  8
0
100
AcDbText
 10
15.0
 20
31.5
 30
0.0
 40
2.5
  1
A3
  7
ROMANS
100
AcDbAttribute
  2
FORMAAT
 70
     9
  0
ATTRIB
  5
27E
100
AcDbEntity
  8
0
100
AcDbText
 10
15.0
 20
27.5
 30
0.0
 40
2.5
  1
hor
  7
ROMANS
100
AcDbAttribute
  2
POSITIE
 70
     9
  0
ATTRIB
  5
27F
100
AcDbEntity
  8
0
100
AcDbText
 10
15.0
 20
23.5
 30
0.0
 40
2.5
  1
1
  7
ROMANS
100
AcDbAttribute
  2
AANTAL
 70
     9
  0
ATTRIB
  5
280
100
AcDbEntity
  8
0
100
AcDbText
 10
15.0
 20
19.5
 30
0.0
 40
2.5
  1
1
  7
ROMANS
100
AcDbAttribute
  2
TEKSCHAAL
 70
     9
  0
ATTRIB
  5
281
100
AcDbEntity
  8
0
100
AcDbText
 10
15.0
 20
15.5
 30
0.0
 40
2.5
  1
1
  7
ROMANS
100
AcDbAttribute
  2
SNAPSCHAAL
 70
     9
  0
ATTRIB
  5
282
100
AcDbEntity
  8
0
100
AcDbText
 10
15.0
 20
11.5
 30
0.0
 40
2.5
  1
1
  7
ROMANS
100
AcDbAttribute
  2
BLADAANTAL
 70
     9
  0
SEQEND
  5
283
100
AcDbEntity
  8
0
  0
LWPOLYLINE
  5
1221
100
AcDbEntity
  8
VHH-025
100
AcDbPolyline
 90
       16
 70
     0
 43
0.0
 10
194.168087
 20
61.863748
 10
185.816274
 20
63.008508
 10
177.200645
 20
64.010133
 10
164.791714
 20
65.160741
 10
152.084803
 20
66.011056
 10
137.2253
 20
66.613017
 10
122.212411
 20
66.811289
 10
113.822734
 20
66.745237
 10
105.460007
 20
66.552863
 10
97.150774
 20
66.234829
 10
88.921583
 20
65.791797
 10
80.439328
 20
65.196341
 10
72.093032
 20
64.466645
 10
63.915383
 20
63.605254
 10
55.939068
 20
62.614713
 10
50.61104
 20
61.863748
  0
LWPOLYLINE
  5
1222
100
AcDbEntity
  8
VHH-025
100
AcDbPolyline
 90
        7
 70
     0
 43
0.0
 10
238.614843
 20
57.474042
 42
0.057149
 10
238.388476
 20
57.5
 10
6.390652
 20
57.5
 42
0.414214
 10
5.390652
 20
56.5
 10
5.390652
 20
21.556182
 42
0.414214
 10
6.390652
 20
20.556182
 10
237.555255
 20
20.556182
  0
LINE
  5
1223
100
AcDbEntity
  8
VHH-025
100
AcDbLine
 10
237.550036
 20
19.9
 30
0.0
 11
9.390652
 21
19.9
 31
0.0
  0
LINE
  5
1224
100
AcDbEntity
  8
VHH-025
100
AcDbLine
 10
187.368566
 20
69.947381
 30
0.0
 11
57.410562
 21
69.947381
 31
0.0
  0
LINE
  5
1225
100
AcDbEntity
  8
VHH-025
100
AcDbLine
 10
175.108045
 20
72.739647
 30
0.0
 11
69.671083
 21
72.739647
 31
0.0
  0
LINE
  5
1226
100
AcDbEntity
  8
VHH-025
100
AcDbLine
 10
194.168087
 20
60.2
 30
0.0
 11
50.61104
 21
60.2
 31
0.0
  0
LWPOLYLINE
  5
1227
100
AcDbEntity
  8
VHH-025
100
AcDbPolyline
 90
       43
 70
     0
 43
0.0
 10
154.777405
 20
271.826999
 10
154.791897
 20
271.870381
 10
155.071235
 20
272.640859
 10
156.002432
 20
275.027589
 10
157.179769
 20
277.9931
 10
158.298637
 20
280.867975
 10
158.754551
 20
282.090852
 10
159.203906
 20
283.30115
 10
159.528631
 20
284.174219
 10
160.123631
 20
285.771815
 10
160.525181
 20
286.849216
 10
161.065237
 20
288.298335
 10
161.544225
 20
289.584564
 10
162.023867
 20
290.874297
 10
162.579773
 20
292.372301
 10
162.996796
 20
293.498977
 10
163.628293
 20
295.211051
 10
163.981046
 20
296.171076
 10
164.971176
 20
298.882786
 10
165.959416
 20
301.619888
 10
166.938028
 20
304.367946
 10
167.901627
 20
307.118811
 10
168.847244
 20
309.871275
 10
169.772099
 20
312.625198
 10
170.671274
 20
315.374624
 10
171.537487
 20
318.106359
 10
172.363096
 20
320.805325
 10
173.14232
 20
323.461587
 10
173.411194
 20
324.408298
 10
173.871536
 20
326.072479
 10
174.170883
 20
327.188517
 10
174.547546
 20
328.637923
 10
174.864688
 20
329.904505
 10
175.165604
 20
331.153498
 10
175.488232
 20
332.55529
 10
175.719141
 20
333.607767
 10
176.03539
 20
335.134908
 10
176.201249
 20
335.986185
 10
176.606288
 20
338.277695
 10
176.929979
 20
340.477746
 10
177.168118
 20
342.585155
 10
177.31543
 20
344.596084
 10
177.352497
 20
345.539293
  0
LWPOLYLINE
  5
1228
100
AcDbEntity
  8
VHH-025
100
AcDbPolyline
 90
       33
 70
     0
 43
0.0
 10
163.839684
 20
271.826999
 10
163.858277
 20
271.870375
 10
164.216633
 20
272.64084
 10
165.410499
 20
275.027528
 10
166.918072
 20
277.993
 10
168.347273
 20
280.867862
 10
168.927234
 20
282.090737
 10
169.496433
 20
283.301025
 10
170.654683
 20
285.771671
 10
171.832298
 20
288.298176
 10
173.023912
 20
290.874128
 10
174.226766
 20
293.498802
 10
175.437719
 20
296.170897
 10
176.65058
 20
298.882606
 10
177.856331
 20
301.619711
 10
179.04604
 20
304.367774
 10
180.21366
 20
307.118646
 10
181.356053
 20
309.871118
 10
182.470279
 20
312.625052
 10
183.550796
 20
315.37449
 10
184.589233
 20
318.106238
 10
185.576817
 20
320.805217
 10
186.507008
 20
323.461493
 10
187.375846
 20
326.072399
 10
188.179855
 20
328.637856
 10
188.91371
 20
331.153445
 10
189.569918
 20
333.607726
 10
190.140603
 20
335.986155
 10
190.61939
 20
338.277675
 10
191.001516
 20
340.477734
 10
191.282297
 20
342.585149
 10
191.455788
 20
344.596083
 10
191.499406
 20
345.539362
  0
ELLIPSE
  5
1229
100
AcDbEntity
  8
VHH-025
100
AcDbEllipse
 10
122.389564
 20
232.376199
 30
0.0
 11
-55.34531666957889
 21
0.0000000000006056
 31
0.0
210
0.0
220
0.0
230
-1.0
 40
0.075659
 41
2.191695964542597
 42
4.567333821796475
  0
LINE
  5
122A
100
AcDbEntity
  8
VHH-025
100
AcDbLine
 10
70.89118
 20
263.530385
 30
0.0
 11
173.885772
 21
263.530385
 31
0.0
  0
LINE
  5
122B
100
AcDbEntity
  8
VHH-025
100
AcDbLine
 10
69.250544
 20
265.719382
 30
0.0
 11
175.526407
 21
265.719382
 31
0.0
  0
LINE
  5
122C
100
AcDbEntity
  8
VHH-025
100
AcDbLine
 10
126.823601
 20
255.232054
 30
0.0
 11
173.885772
 21
263.530385
 31
0.0
  0
ARC
  5
122D
100
AcDbEntity
  8
VHH-025
100
AcDbCircle
 10
161.381596
 20
171.566575
 30
0.0
 40
20.0
100
AcDbArc
 50
20.0
 51
60.0
  0
LWPOLYLINE
  5
122E
100
AcDbEntity
  8
VHH-025
100
AcDbPolyline
 90
        6
 70
     0
 43
0.0
 10
174.916824
 20
271.242378
 10
174.449356
 20
271.242428
 10
173.071229
 20
271.242556
 10
171.13304
 20
271.242705
 10
168.529374
 20
271.242841
 10
163.75019
 20
271.242905
  0
LINE
  5
122F
100
AcDbEntity
  8
VHH-025
100
AcDbLine
 10
177.517946
 20
232.005811
 30
0.0
 11
165.018485
 21
215.178962
 31
0.0
  0
LINE
  5
1230
100
AcDbEntity
  8
VHH-025
100
AcDbLine
 10
233.559492
 20
359.2
 30
0.0
 11
11.217459
 21
359.2
 31
0.0
  0
LINE
  5
1231
100
AcDbEntity
  8
VHH-025
100
AcDbLine
 10
233.585646
 20
358.2
 30
0.0
 11
11.191306
 21
358.2
 31
0.0
  0
LINE
  5
1232
100
AcDbEntity
  8
VHH-025
100
AcDbLine
 10
209.524017
 20
346.5
 30
0.0
 11
35.252935
 21
346.5
 31
0.0
  0
LINE
  5
1233
100
AcDbEntity
  8
VHH-025
100
AcDbLine
 10
209.524017
 20
347.1
 30
0.0
 11
35.252935
 21
347.1
 31
0.0
  0
LINE
  5
1234
100
AcDbEntity
  8
VHH-025
100
AcDbLine
 10
230.643236
 20
347.9
 30
0.0
 11
14.136427
 21
347.9
 31
0.0
  0
LINE
  5
1235
100
AcDbEntity
  8
VHH-025
100
AcDbLine
 10
221.908188
 20
349.777798
 30
0.0
 11
24.777144
 21
349.777834
 31
0.0
  0
SPLINE
  5
1236
100
AcDbEntity
  8
VHH-025
100
AcDbSpline
210
0.0
220
0.0
230
-1.0
 70
     8
 71
     3
 72
    15
 73
    11
 74
     9
 42
0.0000001
 43
0.0000001
 44
0.0000000001
 40
0.0
 40
0.0
 40
0.0
 40
0.0
 40
8.727930916723018
 40
16.2576332325584
 40
20.36216076943267
 40
21.62307303412766
 40
23.69549543386408
 40
25.38624445710645
 40
45.72281463408907
 40
79.43205808847057
 40
79.43205808847057
 40
79.43205808847057
 40
79.43205808847057
 10
227.5210351619007
 20
421.700000154683
 30
0.0
 10
226.8222566048386
 20
424.5165902787395
 30
0.0
 10
225.5206324742299
 20
429.7630902384972
 30
0.0
 10
223.5905455172269
 20
436.357166517708
 30
0.0
 10
221.2841268392419
 20
439.9812058379048
 30
0.0
 10
219.7458730203106
 20
441.9824605104726
 30
0.0
 10
218.0561254470674
 20
442.520561818944
 30
0.0
 10
210.1201027280277
 20
443.3052661239011
 30
0.0
 10
191.5591802383891
 20
445.221637583763
 30
0.0
 10
173.5910939247321
 20
446.2672750766858
 30
0.0
 10
162.3841094191848
 20
446.9194560033047
 30
0.0
 11
227.5210351619007
 21
421.700000154683
 31
0.0
 11
225.3557012731198
 21
430.1550641542744
 31
0.0
 11
222.8561791779357
 21
437.2577964638003
 31
0.0
 11
220.6877439378095
 21
440.7427691911452
 31
0.0
 11
219.8519296652412
 21
441.6868635937499
 31
0.0
 11
217.9357813037531
 21
442.476363473228
 31
0.0
 11
216.2596726658666
 21
442.6983817013024
 31
0.0
 11
196.016654664203
 21
444.6467935539821
 31
0.0
 11
162.3841094191848
 21
446.9194560033047
 31
0.0
  0
LWPOLYLINE
  5
1266
100
AcDbEntity
  8
VHH-025
100
AcDbPolyline
 90
       12
 70
     0
 43
0.0
 10
43.399648
 20
345.522402
 10
43.652407
 20
341.387842
 10
44.223037
 20
336.809171
 10
46.237465
 20
326.610015
 10
50.472293
 20
311.784507
 10
55.915123
 20
297.275906
 10
62.459127
 20
283.606734
 10
63.311007
 20
282.07462
 10
64.544019
 20
279.986616
 10
68.01502
 20
274.583961
 10
69.352944
 20
272.49298
 10
69.743987
 20
271.8309
  0
LWPOLYLINE
  5
1267
100
AcDbEntity
  8
VHH-025
100
AcDbPolyline
 90
       33
 70
     0
 43
0.0
 10
89.938811
 20
271.826999
 10
89.92429
 20
271.870375
 10
89.644361
 20
272.64084
 10
88.711255
 20
275.027528
 10
87.531655
 20
277.993
 10
86.410919
 20
280.867862
 10
85.954445
 20
282.090737
 10
85.504743
 20
283.301025
 10
84.584872
 20
285.771671
 10
83.643801
 20
288.298176
 10
82.686323
 20
290.874128
 10
81.715108
 20
293.498802
 10
80.733084
 20
296.170897
 10
79.745638
 20
298.882606
 10
78.760475
 20
301.619711
 10
77.78527
 20
304.367774
 10
76.825345
 20
307.118646
 10
75.88362
 20
309.871118
 10
74.962829
 20
312.625052
 10
74.067836
 20
315.37449
 10
73.205858
 20
318.106238
 10
72.384466
 20
320.805217
 10
71.609383
 20
323.461493
 10
70.884179
 20
326.072399
 10
70.212009
 20
328.637856
 10
69.597563
 20
331.153445
 10
69.047348
 20
333.607726
 10
68.568204
 20
335.986155
 10
68.165711
 20
338.277675
 10
67.844096
 20
340.477734
 10
67.607514
 20
342.585149
 10
67.461181
 20
344.596083
 10
67.424362
 20
345.539362
  0
LWPOLYLINE
  5
1268
100
AcDbEntity
  8
VHH-025
100
AcDbPolyline
 90
       43
 70
     0
 43
0.0
 10
80.889792
 20
271.826999
 10
80.871173
 20
271.870381
 10
80.512343
 20
272.640859
 10
79.316951
 20
275.027589
 10
77.807578
 20
277.9931
 10
76.376911
 20
280.867975
 10
75.796511
 20
282.090852
 10
75.227032
 20
283.30115
 10
74.816993
 20
284.174219
 10
74.068653
 20
285.771815
 10
73.56563
 20
286.849216
 10
72.891444
 20
288.298335
 10
72.295578
 20
289.584564
 10
71.700721
 20
290.874297
 10
71.013404
 20
292.372301
 10
70.499202
 20
293.498977
 10
69.722686
 20
295.211051
 10
69.289985
 20
296.171076
 10
68.079221
 20
298.882786
 10
66.875877
 20
301.619888
 10
65.688834
 20
304.367946
 10
64.524092
 20
307.118811
 10
63.384748
 20
309.871275
 10
62.273708
 20
312.625198
 10
61.196469
 20
315.374624
 10
60.161352
 20
318.106359
 10
59.177076
 20
320.805325
 10
58.250132
 20
323.461587
 10
57.930738
 20
324.408298
 10
57.384441
 20
326.072479
 10
57.029566
 20
327.188517
 10
56.583444
 20
328.637923
 10
56.208179
 20
329.904505
 10
55.852424
 20
331.153498
 10
55.471343
 20
332.55529
 10
55.198822
 20
333.607767
 10
54.825896
 20
335.134908
 10
54.630464
 20
335.986185
 10
54.153675
 20
338.277695
 10
53.773178
 20
340.477746
 10
53.493619
 20
342.585155
 10
53.320897
 20
344.596084
 10
53.277477
 20
345.539293
  0
LWPOLYLINE
  5
1269
100
AcDbEntity
  8
VHH-025
100
AcDbPolyline
 90
        4
 70
     1
 43
0.0
 10
131.388476
 20
344.654426
 10
113.388476
 20
344.654426
 10
113.388476
 20
280.098158
 10
131.388476
 20
280.098158
  0
LINE
  5
1271
100
AcDbEntity
  8
VHH-025
100
AcDbLine
 10
25.491187
 20
57.5
 30
0.0
 11
25.491187
 21
347.9
 31
0.0
  0
LINE
  5
1272
100
AcDbEntity
  8
VHH-025
100
AcDbLine
 10
7.390652
 20
421.7
 30
0.0
 11
7.390652
 21
57.5
 31
0.0
  0
ARC
  5
1316
100
AcDbEntity
  8
VHH-025
100
AcDbCircle
 10
62.48501
 20
70.574691
 30
0.0
 40
3.0
100
AcDbArc
 50
20.0
 51
63.174889
  0
ARC
  5
1317
100
AcDbEntity
  8
VHH-025
100
AcDbCircle
 10
81.889564
 20
108.947381
 30
0.0
 40
40.0
100
AcDbArc
 50
160.0
 51
243.174889
  0
INSERT
  5
1318
100
AcDbEntity
  8
VHH-050
100
AcDbBlockReference
  2
A$C32063EEB
 10
-8.838839
 20
-8.838837
 30
0.0
  0
LWPOLYLINE
  5
131C
100
AcDbEntity
  8
VHH-025
100
AcDbPolyline
 90
        6
 70
     0
 43
0.0
 10
50.61104
 20
61.863748
 10
49.916318
 20
61.787149
 10
49.048139
 20
61.725337
 10
48.106845
 20
61.732937
 10
47.433211
 20
61.923053
 10
47.389564
 20
62.025752
  0
LINE
  5
131D
100
AcDbEntity
  8
VHH-025
100
AcDbLine
 10
1.712386
 20
39.359717
 30
0.0
 11
0.0
 21
1.0
 31
0.0
  0
LINE
  5
131E
100
AcDbEntity
  8
VHH-025
100
AcDbLine
 10
1.580954
 20
0.0
 30
0.0
 11
25.080954
 21
0.0
 31
0.0
  0
LINE
  5
131F
100
AcDbEntity
  8
VHH-025
100
AcDbLine
 10
0.0
 20
1.0
 30
0.0
 11
27.390652
 21
1.0
 31
0.0
  0
LINE
  5
1320
100
AcDbEntity
  8
VHH-025
100
AcDbLine
 10
25.080954
 20
1.0
 30
0.0
 11
25.080954
 21
0.0
 31
0.0
  0
LINE
  5
1321
100
AcDbEntity
  8
VHH-025
100
AcDbLine
 10
27.390652
 20
1.0
 30
0.0
 11
36.184162
 21
19.9
 31
0.0
  0
LINE
  5
1322
100
AcDbEntity
  8
VHH-025
100
AcDbLine
 10
9.390652
 20
19.9
 30
0.0
 11
9.390652
 21
20.556182
 31
0.0
  0
LINE
  5
1323
100
AcDbEntity
  8
VHH-025
100
AcDbLine
 10
1.580954
 20
1.0
 30
0.0
 11
1.580954
 21
0.0
 31
0.0
  0
LINE
  5
1324
100
AcDbEntity
  8
VHH-025
100
AcDbLine
 10
47.389564
 20
66.811317
 30
0.0
 11
47.389564
 21
62.025752
 31
0.0
  0
LINE
  5
1325
100
AcDbEntity
  8
VHH-025
100
AcDbLine
 10
47.389564
 20
60.2
 30
0.0
 11
47.389564
 21
62.025752
 31
0.0
  0
LINE
  5
1326
100
AcDbEntity
  8
VHH-025
100
AcDbLine
 10
51.189564
 20
57.5
 30
0.0
 11
51.189564
 21
60.2
 31
0.0
  0
LINE
  5
1327
100
AcDbEntity
  8
VHH-025
100
AcDbLine
 10
50.61104
 20
60.2
 30
0.0
 11
47.389564
 21
60.2
 31
0.0
  0
ARC
  5
1328
100
AcDbEntity
  8
VHH-025
100
AcDbCircle
 10
48.389564
 20
66.811317
 30
0.0
 40
1.0
100
AcDbArc
 50
104.527666
 51
180.0
  0
ARC
  5
1329
100
AcDbEntity
  8
VHH-025
100
AcDbCircle
 10
57.410562
 20
66.947381
 30
0.0
 40
3.0
100
AcDbArc
 50
90.0
 51
102.813094
  0
ARC
  5
132A
100
AcDbEntity
  8
VHH-025
100
AcDbCircle
 10
122.389564
 20
-218.756538
 30
0.0
 40
296.0
100
AcDbArc
 50
102.813094
 51
104.527666
  0
LINE
  5
132B
100
AcDbEntity
  8
VHH-025
100
AcDbLine
 10
5.390652
 20
40.5
 30
0.0
 11
2.910899
 21
40.5
 31
0.0
  0
ARC
  5
132C
100
AcDbEntity
  8
VHH-025
100
AcDbCircle
 10
2.910899
 20
39.3
 30
0.0
 40
1.2
100
AcDbArc
 50
90.0
 51
177.147564
  0
LINE
  5
132D
100
AcDbEntity
  8
VHH-025
100
AcDbLine
 10
65.304088
 20
71.600752
 30
0.0
 11
65.560866
 21
70.89526
 31
0.0
  0
ARC
  5
132E
100
AcDbEntity
  8
VHH-025
100
AcDbCircle
 10
71.199021
 20
72.947381
 30
0.0
 40
6.0
100
AcDbArc
 50
200.0
 51
210.0
  0
ARC
  5
135B
100
AcDbEntity
  8
VHH-025
100
AcDbCircle
 10
83.397531
 20
171.566575
 30
0.0
 40
20.0
100
AcDbArc
 50
120.0
 51
160.0
  0
LINE
  5
135C
100
AcDbEntity
  8
VHH-025
100
AcDbLine
 10
132.40968
 20
124.912513
 30
0.0
 11
134.266348
 21
215.312444
 31
0.0
  0
LINE
  5
135D
100
AcDbEntity
  8
VHH-025
100
AcDbLine
 10
112.369447
 20
124.912513
 30
0.0
 11
110.51278
 21
215.312444
 31
0.0
  0
LINE
  5
135E
100
AcDbEntity
  8
VHH-025
100
AcDbLine
 10
44.301859
 20
122.628186
 30
0.0
 11
64.603679
 21
178.406978
 31
0.0
  0
LINE
  5
135F
100
AcDbEntity
  8
VHH-025
100
AcDbLine
 10
113.369236
 20
123.933047
 30
0.0
 11
131.409891
 21
123.933047
 31
0.0
  0
ARC
  5
1360
100
AcDbEntity
  8
VHH-025
100
AcDbCircle
 10
131.409891
 20
124.933047
 30
0.0
 40
1.0
100
AcDbArc
 50
270.0
 51
358.823404
  0
ARC
  5
1361
100
AcDbEntity
  8
VHH-025
100
AcDbCircle
 10
113.369236
 20
124.933047
 30
0.0
 40
1.0
100
AcDbArc
 50
181.176596
 51
270.0
  0
LWPOLYLINE
  5
1362
100
AcDbEntity
  8
VHH-025
100
AcDbPolyline
 90
        6
 70
     0
 43
0.0
 10
90.008876
 20
271.242905
 10
88.891603
 20
271.242892
 10
85.627493
 20
271.24286
 10
83.452792
 20
271.242869
 10
81.983489
 20
271.242889
 10
80.979389
 20
271.242903
  0
ELLIPSE
  5
1363
100
AcDbEntity
  8
VHH-025
100
AcDbEllipse
 10
122.389564
 20
232.376199
 30
0.0
 11
55.34531666957888
 21
0.0000000000006056
 31
0.0
210
0.0
220
0.0
230
-1.0
 40
0.075659
 41
1.715851485383109
 42
4.091489342636988
  0
LINE
  5
1364
100
AcDbEntity
  8
VHH-025
100
AcDbLine
 10
110.548531
 20
213.571763
 30
0.0
 11
79.776299
 21
213.571763
 31
0.0
  0
LINE
  5
1365
100
AcDbEntity
  8
VHH-025
100
AcDbLine
 10
117.953351
 20
255.232054
 30
0.0
 11
70.89118
 21
263.530385
 31
0.0
  0
LINE
  5
1366
100
AcDbEntity
  8
VHH-025
100
AcDbLine
 10
111.046754
 20
189.313593
 30
0.0
 11
74.139564
 21
189.313593
 31
0.0
  0
LWPOLYLINE
  5
1367
100
AcDbEntity
  8
VHH-025
100
AcDbPolyline
 90
        6
 70
     0
 43
0.0
 10
80.979389
 20
271.242903
 10
77.009033
 20
271.242867
 10
73.862022
 20
271.242718
 10
71.898417
 20
271.242573
 10
70.577454
 20
271.242451
 10
69.860046
 20
271.242378
  0
ELLIPSE
  5
1368
100
AcDbEntity
  8
VHH-025
100
AcDbEllipse
 10
80.195828
 20
271.352594
 30
0.0
 11
0.0000043170876913
 21
0.9999999999737386
 31
0.0
210
0.0
220
0.0
230
-1.0
 40
0.788319
 41
1.076504944317234
 42
1.680705136365019
  0
LWPOLYLINE
  5
1369
100
AcDbEntity
  8
VHH-025
100
AcDbPolyline
 90
        3
 70
     0
 43
0.0
 10
69.743987
 20
271.8309
 10
69.847184
 20
271.545546
 10
69.860045
 20
271.242378
  0
LINE
  5
136A
100
AcDbEntity
  8
VHH-025
100
AcDbLine
 10
67.261182
 20
232.005811
 30
0.0
 11
79.760643
 21
215.178962
 31
0.0
  0
LINE
  5
136B
100
AcDbEntity
  8
VHH-025
100
AcDbLine
 10
75.50883
 20
213.06901
 30
0.0
 11
79.232137
 21
213.394757
 31
0.0
  0
ARC
  5
136C
100
AcDbEntity
  8
VHH-025
100
AcDbCircle
 10
79.144981
 20
214.390952
 30
0.0
 40
1.0
100
AcDbArc
 50
275.0
 51
52.0
  0
ARC
  5
136D
100
AcDbEntity
  8
VHH-025
100
AcDbCircle
 10
75.639564
 20
211.574718
 30
0.0
 40
1.5
100
AcDbArc
 50
95.0
 51
180.0
  0
LINE
  5
136E
100
AcDbEntity
  8
VHH-025
100
AcDbLine
 10
69.860045
 20
271.242378
 30
0.0
 11
69.250544
 21
265.719382
 31
0.0
  0
ARC
  5
136F
100
AcDbEntity
  8
VHH-025
100
AcDbCircle
 10
71.238476
 20
265.5
 30
0.0
 40
2.0
100
AcDbArc
 50
173.702494
 51
260.0
  0
LINE
  5
1370
100
AcDbEntity
  8
VHH-025
100
AcDbLine
 10
73.397531
 20
188.887083
 30
0.0
 11
74.139564
 21
189.315496
 31
0.0
  0
LINE
  5
1371
100
AcDbEntity
  8
VHH-025
100
AcDbLine
 10
74.139564
 20
211.574718
 30
0.0
 11
74.139564
 21
189.313593
 31
0.0
  0
LWPOLYLINE
  5
1372
100
AcDbEntity
  8
VHH-025
100
AcDbPolyline
 90
       10
 70
     0
 43
0.0
 10
154.707471
 20
271.242903
 10
148.537484
 20
271.242861
 10
141.814919
 20
271.2427
 10
132.620529
 20
271.242483
 10
123.09046
 20
271.242378
 10
115.762834
 20
271.242423
 10
108.586574
 20
271.242556
 10
102.815378
 20
271.242705
 10
97.283732
 20
271.242841
 10
90.008876
 20
271.242905
  0
LINE
  5
1373
100
AcDbEntity
  8
VHH-025
100
AcDbLine
 10
165.060622
 20
213.571763
 30
0.0
 11
134.230597
 21
213.571763
 31
0.0
  0
LINE
  5
1374
100
AcDbEntity
  8
VHH-025
100
AcDbLine
 10
153.957578
 20
239.998054
 30
0.0
 11
90.821549
 21
239.998054
 31
0.0
  0
ELLIPSE
  5
1375
100
AcDbEntity
  8
VHH-025
100
AcDbEllipse
 10
89.396174
 20
271.352596
 30
0.0
 11
-0.0000057216521182
 21
0.999999999975374
 31
0.0
210
0.0
220
0.0
230
-1.0
 40
0.616421
 41
1.076513383701558
 42
1.680712066550641
  0
ELLIPSE
  5
1376
100
AcDbEntity
  8
VHH-025
100
AcDbEllipse
 10
122.389564
 20
216.002303
 30
0.0
 11
-12.11355288946792
 21
0.001334442023445
 31
0.0
210
0.0
220
0.0
230
-1.0
 40
0.061344
 41
0.4593740353573961
 42
2.67862704165174
  0
LINE
  5
1377
100
AcDbEntity
  8
VHH-025
100
AcDbLine
 10
130.389564
 20
216.559935
 30
0.0
 11
130.389564
 21
230.743047
 31
0.0
  0
LINE
  5
1378
100
AcDbEntity
  8
VHH-025
100
AcDbLine
 10
114.389564
 20
216.559935
 30
0.0
 11
114.389564
 21
230.743047
 31
0.0
  0
LINE
  5
1379
100
AcDbEntity
  8
VHH-025
100
AcDbLine
 10
127.389564
 20
216.679059
 30
0.0
 11
127.389564
 21
236.35207
 31
0.0
  0
LINE
  5
137A
100
AcDbEntity
  8
VHH-025
100
AcDbLine
 10
117.389564
 20
216.679059
 30
0.0
 11
117.389564
 21
236.35207
 31
0.0
  0
LINE
  5
137B
100
AcDbEntity
  8
VHH-025
100
AcDbLine
 10
118.389564
 20
218.982744
 30
0.0
 11
126.389564
 21
218.982744
 31
0.0
  0
LINE
  5
137C
100
AcDbEntity
  8
VHH-025
100
AcDbLine
 10
133.227984
 20
216.332978
 30
0.0
 11
133.266559
 21
216.332978
 31
0.0
  0
ARC
  5
137D
100
AcDbEntity
  8
VHH-025
100
AcDbCircle
 10
133.266559
 20
215.332978
 30
0.0
 40
1.0
100
AcDbArc
 50
358.823404
 51
90.0
  0
ARC
  5
137E
100
AcDbEntity
  8
VHH-025
100
AcDbCircle
 10
126.389564
 20
219.982744
 30
0.0
 40
1.0
100
AcDbArc
 50
270.0
 51
0.0
  0
ARC
  5
137F
100
AcDbEntity
  8
VHH-025
100
AcDbCircle
 10
111.512569
 20
215.332978
 30
0.0
 40
1.0
100
AcDbArc
 50
90.0
 51
181.176596
  0
LINE
  5
1380
100
AcDbEntity
  8
VHH-025
100
AcDbLine
 10
111.512569
 20
216.332978
 30
0.0
 11
111.551144
 21
216.332978
 31
0.0
  0
ARC
  5
1381
100
AcDbEntity
  8
VHH-025
100
AcDbCircle
 10
118.389564
 20
219.982744
 30
0.0
 40
1.0
100
AcDbArc
 50
180.0
 51
270.0
  0
LINE
  5
1382
100
AcDbEntity
  8
VHH-025
100
AcDbLine
 10
118.389564
 20
237.35207
 30
0.0
 11
126.389564
 21
237.35207
 31
0.0
  0
ARC
  5
1383
100
AcDbEntity
  8
VHH-025
100
AcDbCircle
 10
126.389564
 20
236.35207
 30
0.0
 40
1.0
100
AcDbArc
 50
0.0
 51
90.0
  0
ARC
  5
1384
100
AcDbEntity
  8
VHH-025
100
AcDbCircle
 10
118.389564
 20
236.35207
 30
0.0
 40
1.0
100
AcDbArc
 50
90.0
 51
180.0
  0
LINE
  5
1385
100
AcDbEntity
  8
VHH-025
100
AcDbLine
 10
118.788476
 20
254.5
 30
0.0
 11
125.988476
 21
254.5
 31
0.0
  0
LINE
  5
1386
100
AcDbEntity
  8
VHH-025
100
AcDbLine
 10
125.988476
 20
254.5
 30
0.0
 11
126.131223
 21
254.747246
 31
0.0
  0
ARC
  5
1387
100
AcDbEntity
  8
VHH-025
100
AcDbCircle
 10
126.997249
 20
254.247246
 30
0.0
 40
1.0
100
AcDbArc
 50
100.0
 51
150.0
  0
LINE
  5
1388
100
AcDbEntity
  8
VHH-025
100
AcDbLine
 10
118.788476
 20
254.5
 30
0.0
 11
118.645728
 21
254.747246
 31
0.0
  0
ARC
  5
1389
100
AcDbEntity
  8
VHH-025
100
AcDbCircle
 10
117.779703
 20
254.247246
 30
0.0
 40
1.0
100
AcDbArc
 50
30.0
 51
80.0
  0
LINE
  5
138A
100
AcDbEntity
  8
VHH-025
100
AcDbLine
 10
113.388476
 20
288.671954
 30
0.0
 11
131.388476
 21
288.671954
 31
0.0
  0
ARC
  5
138B
100
AcDbEntity
  8
VHH-025
100
AcDbCircle
 10
129.389564
 20
230.743047
 30
0.0
 40
1.0
100
AcDbArc
 50
0.0
 51
90.0
  0
LINE
  5
138C
100
AcDbEntity
  8
VHH-025
100
AcDbLine
 10
127.389564
 20
231.743047
 30
0.0
 11
129.389564
 21
231.743047
 31
0.0
  0
ARC
  5
138D
100
AcDbEntity
  8
VHH-025
100
AcDbCircle
 10
115.389564
 20
230.743047
 30
0.0
 40
1.0
100
AcDbArc
 50
90.0
 51
180.0
  0
LINE
  5
138E
100
AcDbEntity
  8
VHH-025
100
AcDbLine
 10
115.389564
 20
231.743047
 30
0.0
 11
117.389564
 21
231.743047
 31
0.0
  0
ARC
  5
138F
100
AcDbEntity
  8
VHH-025
100
AcDbCircle
 10
90.821549
 20
239.498054
 30
0.0
 40
0.5
100
AcDbArc
 50
90.0
 51
178.0
  0
LINE
  5
1390
100
AcDbEntity
  8
VHH-025
100
AcDbLine
 10
89.95406
 20
228.98328
 30
0.0
 11
90.321854
 21
239.515504
 31
0.0
  0
LWPOLYLINE
  5
1391
100
AcDbEntity
  8
VHH-025
100
AcDbPolyline
 90
        6
 70
     0
 43
0.0
 10
163.75019
 20
271.242905
 10
162.850675
 20
271.242892
 10
159.909944
 20
271.24286
 10
157.648124
 20
271.242869
 10
155.954338
 20
271.242889
 10
154.707471
 20
271.242903
  0
ELLIPSE
  5
1392
100
AcDbEntity
  8
VHH-025
100
AcDbEllipse
 10
164.532855
 20
271.352596
 30
0.0
 11
-0.0000044791293391
 21
0.9999999999706712
 31
0.0
210
0.0
220
0.0
230
-1.0
 40
0.787417
 41
4.602480294514935
 42
5.206678977368046
  0
ELLIPSE
  5
1393
100
AcDbEntity
  8
VHH-025
100
AcDbEllipse
 10
155.319026
 20
271.352594
 30
0.0
 11
0.0000055313271815
 21
0.9999999999763709
 31
0.0
210
0.0
220
0.0
230
-1.0
 40
0.615267
 41
4.602473364330868
 42
5.206673556376944
  0
LINE
  5
1394
100
AcDbEntity
  8
VHH-025
100
AcDbLine
 10
169.270297
 20
213.06901
 30
0.0
 11
165.546991
 21
213.394757
 31
0.0
  0
ARC
  5
1395
100
AcDbEntity
  8
VHH-025
100
AcDbCircle
 10
169.139564
 20
211.574718
 30
0.0
 40
1.5
100
AcDbArc
 50
0.0
 51
85.0
  0
ARC
  5
1396
100
AcDbEntity
  8
VHH-025
100
AcDbCircle
 10
165.634146
 20
214.390952
 30
0.0
 40
1.0
100
AcDbArc
 50
128.0
 51
265.0
  0
ARC
  5
1397
100
AcDbEntity
  8
VHH-025
100
AcDbCircle
 10
153.957578
 20
239.498054
 30
0.0
 40
0.5
100
AcDbArc
 50
2.0
 51
90.0
  0
LINE
  5
1398
100
AcDbEntity
  8
VHH-025
100
AcDbLine
 10
154.825067
 20
228.98328
 30
0.0
 11
154.457274
 21
239.515504
 31
0.0
  0
LINE
  5
1399
100
AcDbEntity
  8
VHH-025
100
AcDbLine
 10
170.639564
 20
189.313593
 30
0.0
 11
133.732374
 21
189.313593
 31
0.0
  0
LINE
  5
139A
100
AcDbEntity
  8
VHH-025
100
AcDbLine
 10
171.381596
 20
188.887083
 30
0.0
 11
170.639564
 21
189.315496
 31
0.0
  0
LINE
  5
139B
100
AcDbEntity
  8
VHH-025
100
AcDbLine
 10
170.639564
 20
211.574718
 30
0.0
 11
170.639564
 21
189.313593
 31
0.0
  0
ELLIPSE
  5
13D4
100
AcDbEntity
  8
VHH-025
100
AcDbEllipse
 10
50.867375
 20
399.652897
 30
0.0
 11
-0.5847090253523675
 21
-3.845560362166452
 31
0.0
210
0.0
220
0.0
230
1.0
 40
0.934504
 41
0.0
 42
6.283185307179586
  0
LWPOLYLINE
  5
13D5
100
AcDbEntity
  8
VHH-025
100
AcDbPolyline
 90
        4
 70
     1
 43
0.0
 10
64.101123
 20
402.235148
 10
64.851401
 20
402.235148
 10
64.851401
 20
397.970476
 10
64.101123
 20
397.970476
  0
LWPOLYLINE
  5
13D6
100
AcDbEntity
  8
VHH-025
100
AcDbPolyline
 90
        3
 70
     0
 43
0.0
 10
17.24936
 20
421.7
 10
19.485801
 20
421.7
 10
17.202229
 20
378.085357
  0
LINE
  5
13D7
100
AcDbEntity
  8
VHH-025
100
AcDbLine
 10
24.371328
 20
440.407869
 30
0.0
 11
22.091806
 21
359.2
 31
0.0
  0
LINE
  5
13D8
100
AcDbEntity
  8
VHH-025
100
AcDbLine
 10
58.968012
 20
421.013646
 30
0.0
 11
57.914163
 21
394.217127
 31
0.0
  0
LINE
  5
13D9
100
AcDbEntity
  8
VHH-025
100
AcDbLine
 10
42.62552
 20
389.341991
 30
0.0
 11
42.592462
 21
422.238518
 31
0.0
  0
LINE
  5
13DA
100
AcDbEntity
  8
VHH-025
100
AcDbLine
 10
43.953485
 20
393.654525
 30
0.0
 11
45.009089
 21
420.120205
 31
0.0
  0
LINE
  5
13DB
100
AcDbEntity
  8
VHH-025
100
AcDbLine
 10
59.729733
 20
422.141054
 30
0.0
 11
59.59078
 21
390.830639
 31
0.0
  0
LINE
  5
13DC
100
AcDbEntity
  8
VHH-025
100
AcDbLine
 10
82.381919
 20
446.919456
 30
0.0
 11
82.381919
 21
379.417767
 31
0.0
  0
LINE
  5
13DD
100
AcDbEntity
  8
VHH-025
100
AcDbLine
 10
61.675086
 20
424.046433
 30
0.0
 11
61.652822
 21
389.400051
 31
0.0
  0
LINE
  5
13DE
100
AcDbEntity
  8
VHH-025
100
AcDbLine
 10
68.295069
 20
423.44451
 30
0.0
 11
68.271023
 21
390.656147
 31
0.0
  0
LINE
  5
13DF
100
AcDbEntity
  8
VHH-025
100
AcDbLine
 10
67.596149
 20
423.405642
 30
0.0
 11
67.575154
 21
390.73208
 31
0.0
  0
LINE
  5
13E0
100
AcDbEntity
  8
VHH-025
100
AcDbLine
 10
85.881919
 20
440.676283
 30
0.0
 11
85.881919
 21
394.596587
 31
0.0
  0
LINE
  5
13E1
100
AcDbEntity
  8
VHH-025
100
AcDbLine
 10
162.384109
 20
446.919456
 30
0.0
 11
162.38411
 21
379.417767
 31
0.0
  0
LINE
  5
13E2
100
AcDbEntity
  8
VHH-025
100
AcDbLine
 10
158.88411
 20
440.676283
 30
0.0
 11
158.88411
 21
394.596587
 31
0.0
  0
SPLINE
  5
13E3
100
AcDbEntity
  8
VHH-025
100
AcDbSpline
210
0.0
220
0.0
230
1.0
 70
     8
 71
     3
 72
    13
 73
     9
 74
     7
 42
0.0000001
 43
0.0000001
 44
0.0000000001
 40
0.0
 40
0.0
 40
0.0
 40
0.0
 40
3.284478271109898
 40
5.848013776661412
 40
8.811210366642434
 40
13.31059109350569
 40
22.1995218064637
 40
44.1530854654974
 40
44.1530854654974
 40
44.1530854654974
 40
44.1530854654974
 10
82.38191883220315
 20
379.4177674662405
 30
0.0
 10
82.53009706301913
 20
378.3136587897744
 30
0.0
 10
82.79392841268437
 20
376.3477932190689
 30
0.0
 10
84.59206776640241
 20
373.9197369067359
 30
0.0
 10
87.45656903716971
 20
371.9983223500528
 30
0.0
 10
93.06399218848223
 20
371.800604129006
 30
0.0
 10
104.7278586118069
 20
371.7017952914103
 30
0.0
 10
115.0402468536722
 20
371.6672750274957
 30
0.0
 10
122.3805633992124
 20
371.6427036422428
 30
0.0
 11
82.38191883220315
 21
379.4177674662405
 31
0.0
 11
83.1196849322805
 21
376.2172208418387
 31
0.0
 11
84.60757176192784
 21
374.1296607659642
 31
0.0
 11
87.08500753671614
 21
372.5039775210871
 31
0.0
 11
91.53917703796469
 21
371.8677378025722
 31
0.0
 11
100.4272270978071
 21
371.7426164474727
 31
0.0
 11
122.3805633992124
 21
371.6427036422428
 31
0.0
  0
LINE
  5
13E4
100
AcDbEntity
  8
VHH-025
100
AcDbLine
 10
66.593733
 20
388.953206
 30
0.0
 11
44.303943
 21
387.806981
 31
0.0
  0
LINE
  5
13E5
100
AcDbEntity
  8
VHH-025
100
AcDbLine
 10
66.557784
 20
389.652282
 30
0.0
 11
61.652822
 21
389.400051
 31
0.0
  0
SPLINE
  5
13E6
100
AcDbEntity
  8
VHH-025
100
AcDbSpline
210
0.0
220
0.0
230
-1.0
 70
     8
 71
     3
 72
    17
 73
    13
 74
    11
 42
0.0000001
 43
0.0000001
 44
0.0000000001
 40
0.0
 40
0.0
 40
0.0
 40
0.0
 40
0.5545798661035835
 40
1.653562178450133
 40
2.750923934510922
 40
3.848571212511746
 40
4.674193321130744
 40
5.488636099266462
 40
8.524172564827045
 40
12.84394436806087
 40
16.51294489443547
 40
20.18194542081123
 40
20.18194542081123
 40
20.18194542081123
 40
20.18194542081123
 10
17.20222877329615
 20
378.0853574984503
 30
0.0
 10
17.17431896786143
 20
377.9026698175621
 30
0.0
 10
17.09110174073955
 20
377.3579593835031
 30
0.0
 10
16.85677040732963
 20
376.4646237353085
 30
0.0
 10
16.32543530753319
 20
375.4910481188913
 30
0.0
 10
15.65642181704608
 20
374.7299702545471
 30
0.0
 10
14.93891661370607
 20
374.1564970038748
 30
0.0
 10
14.06569082334414
 20
372.8443091403933
 30
0.0
 10
13.25123646255129
 20
370.2215989233569
 30
0.0
 10
12.19888346950186
 20
366.6990277768245
 30
0.0
 10
11.76913126609711
 20
362.8252619162194
 30
0.0
 10
11.39988956467881
 20
360.4084207388927
 30
0.0
 10
11.21526871396963
 20
359.2000001502292
 30
0.0
 11
17.20222877329615
 21
378.0853574984503
 31
0.0
 11
17.11201608210467
 21
377.5381642069751
 31
0.0
 11
16.81477337433352
 21
376.4801429900198
 31
0.0
 11
16.29246767870063
 21
375.5150525362414
 31
0.0
 11
15.57073906701771
 21
374.6880474830641
 31
0.0
 11
14.96729150049941
 21
374.1245735256325
 31
0.0
 11
14.49550877876754
 21
373.4606924351255
 31
0.0
 11
13.38456790104646
 21
370.6357513738012
 31
0.0
 11
12.27362702332539
 21
366.4612767004773
 31
0.0
 11
11.74444786864842
 21
362.8306384253537
 31
0.0
 11
11.21526871396963
 21
359.2000001502292
 31
0.0
  0
SPLINE
  5
13E7
100
AcDbEntity
  8
VHH-025
100
AcDbSpline
210
0.0
220
0.0
230
1.0
 70
     8
 71
     3
 72
    11
 73
     7
 74
     5
 42
0.0000001
 43
0.0000001
 44
0.0000000001
 40
0.0
 40
0.0
 40
0.0
 40
0.0
 40
0.6501585836432341
 40
1.328696847749696
 40
2.007498148689249
 40
2.665365116565286
 40
2.665365116565286
 40
2.665365116565286
 40
2.665365116565286
 10
12.27211655989413
 20
349.479886350683
 30
0.0
 10
12.31060592282955
 20
349.2617176408115
 30
0.0
 10
12.38926472468313
 20
348.8158570702112
 30
0.0
 10
12.87966904104266
 20
348.3199186768729
 30
0.0
 10
13.46741272283254
 20
347.9706116462886
 30
0.0
 10
13.91576288842573
 20
347.9232902761233
 30
0.0
 10
14.13642703589357
 20
347.9000001546828
 30
0.0
 11
12.27211655989413
 21
349.479886350683
 31
0.0
 11
12.44646726333667
 21
348.853541384954
 31
0.0
 11
12.89567217233525
 21
348.3449854631635
 31
0.0
 11
13.48860631423304
 21
348.0145307619877
 31
0.0
 11
14.13642703589357
 21
347.9000001546828
 31
0.0
  0
SPLINE
  5
13E8
100
AcDbEntity
  8
VHH-025
100
AcDbSpline
210
0.0
220
0.0
230
1.0
 70
     8
 71
     3
 72
    13
 73
     9
 74
     7
 42
0.0000001
 43
0.0000001
 44
0.0000000001
 40
0.0
 40
0.0
 40
0.0
 40
0.0
 40
5.157331242127678
 40
11.03348381863846
 40
14.61916662718495
 40
16.78242660352463
 40
17.89174384221375
 40
18.52503597702228
 40
18.52503597702228
 40
18.52503597702228
 40
18.52503597702228
 10
17.84666632201333
 20
359.2000001114847
 30
0.0
 10
17.93568210270886
 20
360.9169780778866
 30
0.0
 10
18.12612055426396
 20
364.590243904698
 30
0.0
 10
18.25490448380332
 20
369.4602549082196
 30
0.0
 10
18.27602727113337
 20
373.3399900125478
 30
0.0
 10
18.0305119878204
 20
375.6167616270015
 30
0.0
 10
17.75241501721142
 20
376.8932364663031
 30
0.0
 10
17.54859812554094
 20
377.437658794143
 30
0.0
 10
17.47452780525054
 20
377.6355105809398
 30
0.0
 11
17.84666632201333
 21
359.2000001114847
 31
0.0
 11
18.09334160426078
 21
364.3514287333482
 31
0.0
 11
18.24956491100965
 21
370.2255042674951
 31
0.0
 11
18.19448734091201
 21
373.8107640439657
 31
0.0
 11
17.94215959746361
 21
375.9592575708629
 31
0.0
 11
17.68620694466881
 21
377.0386430328644
 31
0.0
 11
17.47452780525054
 21
377.6355105809398
 31
0.0
  0
SPLINE
  5
13E9
100
AcDbEntity
  8
VHH-025
100
AcDbSpline
210
0.0
220
0.0
230
1.0
 70
     8
 71
     3
 72
    12
 73
     8
 74
     6
 42
0.0000001
 43
0.0000001
 44
0.0000000001
 40
0.0
 40
0.0
 40
0.0
 40
0.0
 40
0.5662025144864266
 40
1.132136061659262
 40
1.697787119143812
 40
2.263116602109281
 40
2.828292171028452
 40
2.828292171028452
 40
2.828292171028452
 40
2.828292171028452
 10
18.23765692168854
 20
349.6078597155219
 30
0.0
 10
18.27619115796245
 20
349.4209906306536
 30
0.0
 10
18.35324132531073
 20
349.0473412307022
 30
0.0
 10
18.69214985433013
 20
348.5795073738379
 30
0.0
 10
19.10737811693319
 20
348.1881665273071
 30
0.0
 10
19.63982856371148
 20
347.9617161549872
 30
0.0
 10
20.01539223563705
 20
347.9205702874988
 30
0.0
 10
20.20314850580325
 20
347.9000001546828
 30
0.0
 11
18.23765692168854
 21
349.6078597155219
 31
0.0
 11
18.39051341089361
 21
349.0626806796826
 31
0.0
 11
18.70496509039367
 21
348.5921480866827
 31
0.0
 11
19.12703950989453
 21
348.215565687683
 31
0.0
 11
19.64504831539306
 21
347.9891494741823
 31
0.0
 11
20.20314850580325
 21
347.9000001546828
 31
0.0
  0
LWPOLYLINE
  5
13EA
100
AcDbEntity
  8
VHH-025
100
AcDbPolyline
 90
        6
 70
     0
 43
0.0
 10
42.399899
 20
346.5
 10
42.401448
 20
346.499999
 10
42.770948
 20
346.428614
 10
43.095716
 20
346.21822
 10
43.316292
 20
345.90028
 10
43.399648
 20
345.522402
  0
SPLINE
  5
13EB
100
AcDbEntity
  8
VHH-025
100
AcDbSpline
210
0.0
220
0.0
230
1.0
 70
     8
 71
     3
 72
    12
 73
     8
 74
     6
 42
0.0000001
 43
0.0000001
 44
0.0000000001
 40
0.0
 40
0.0
 40
0.0
 40
0.0
 40
0.430102224716345
 40
0.8434719887057884
 40
1.254524939527736
 40
1.659116521511796
 40
1.863361491889543
 40
1.863361491889543
 40
1.863361491889543
 40
1.863361491889543
 10
56.63287306570601
 20
393.1033544413385
 30
0.0
 10
56.7753949344445
 20
393.1217674132382
 30
0.0
 10
57.05489407941685
 20
393.1578770288918
 30
0.0
 10
57.4473392448359
 20
393.3250705673646
 30
0.0
 10
57.74323649321431
 20
393.6260807858605
 30
0.0
 10
57.86737656601239
 20
393.9503294105013
 30
0.0
 10
57.90241015575504
 20
394.1501079148765
 30
0.0
 10
57.91416279194527
 20
394.2171271412189
 30
0.0
 11
56.63287306570601
 21
393.1033544413385
 31
0.0
 11
57.05637171844864
 21
393.1784331655626
 31
0.0
 11
57.43312762008463
 21
393.3485200620689
 31
0.0
 11
57.72013230704761
 21
393.6427866725443
 31
0.0
 11
57.87450761164291
 21
394.0167687757839
 31
0.0
 11
57.91416279194527
 21
394.2171271412189
 31
0.0
  0
SPLINE
  5
13EC
100
AcDbEntity
  8
VHH-025
100
AcDbSpline
210
0.0
220
0.0
230
-1.0
 70
     8
 71
     3
 72
    14
 73
    10
 74
     8
 42
0.0000001
 43
0.0000001
 44
0.0000000001
 40
0.0
 40
0.0
 40
0.0
 40
0.0
 40
0.2461636398492001
 40
0.4473543715031562
 40
0.8348519280357574
 40
1.027990166880858
 40
1.250840234265958
 40
1.448371555081069
 40
1.702783789879106
 40
1.702783789879106
 40
1.702783789879106
 40
1.702783789879106
 10
43.95348516421655
 20
393.6545248284601
 30
0.0
 10
43.95330905821773
 20
393.5722304303879
 30
0.0
 10
43.95298901993561
 20
393.4226764233443
 30
0.0
 10
44.01438286777131
 20
393.1491511673842
 30
0.0
 10
44.11761313174127
 20
392.9103981620169
 30
0.0
 10
44.25236535247878
 20
392.6727114014274
 30
0.0
 10
44.43205941693053
 20
392.5639873895176
 30
0.0
 10
44.63783521848664
 20
392.4698163598693
 30
0.0
 10
44.78979454497515
 20
392.4596876389555
 30
0.0
 10
44.87533689062911
 20
392.453985885957
 30
0.0
 11
43.95348516421655
 21
393.6545248284601
 31
0.0
 11
43.96301494812542
 21
393.4085457220253
 31
0.0
 11
44.00470444424354
 21
393.2117216980423
 31
0.0
 11
44.15250076405572
 21
392.8535170021368
 31
0.0
 11
44.25860758774797
 21
392.6921363302144
 31
0.0
 11
44.44089925850312
 21
392.5639493601011
 31
0.0
 11
44.62319092925826
 21
392.4878680254896
 31
0.0
 11
44.87533689062911
 21
392.453985885957
 31
0.0
  0
SPLINE
  5
13ED
100
AcDbEntity
  8
VHH-025
100
AcDbSpline
210
0.0
220
0.0
230
1.0
 70
     8
 71
     3
 72
    12
 73
     8
 74
     6
 42
0.0000001
 43
0.0000001
 44
0.0000000001
 40
0.0
 40
0.0
 40
0.0
 40
0.0
 40
0.6333227639757436
 40
1.258591262609754
 40
1.575282577616405
 40
2.212493335719473
 40
2.538190609335753
 40
2.538190609335753
 40
2.538190609335753
 40
2.538190609335753
 10
42.62551984999663
 20
389.3419913231118
 30
0.0
 10
42.65136785640489
 20
389.1295174019109
 30
0.0
 10
42.70273514789003
 20
388.7072716909289
 30
0.0
 10
43.03236687810897
 20
388.2669763418825
 30
0.0
 10
43.45572668126315
 20
387.9539308137647
 30
0.0
 10
43.87361406807585
 20
387.8053710274962
 30
0.0
 10
44.19517638358036
 20
387.8065737614115
 30
0.0
 10
44.30394271017394
 20
387.8069805782042
 30
0.0
 11
42.62551984999663
 21
389.3419913231118
 31
0.0
 11
42.75674336808878
 21
388.7224123437481
 31
0.0
 11
43.12135794335517
 21
388.2144586973518
 31
0.0
 11
43.37594793712196
 21
388.0261044458084
 31
0.0
 11
43.97845591088116
 21
387.8186877352982
 31
0.0
 11
44.30394271017394
 21
387.8069805782042
 31
0.0
  0
LINE
  5
13EE
100
AcDbEntity
  8
VHH-025
100
AcDbLine
 10
59.117774
 20
390.333586
 30
0.0
 11
44.990393
 21
389.569907
 31
0.0
  0
LINE
  5
13EF
100
AcDbEntity
  8
VHH-025
100
AcDbLine
 10
56.632873
 20
393.103354
 30
0.0
 11
44.875337
 21
392.453986
 31
0.0
  0
LINE
  5
13F0
100
AcDbEntity
  8
VHH-025
100
AcDbLine
 10
44.160547
 20
392.838215
 30
0.0
 11
45.873063
 21
389.617621
 31
0.0
  0
LINE
  5
13F1
100
AcDbEntity
  8
VHH-025
100
AcDbLine
 10
44.463406
 20
390.070754
 30
0.0
 11
44.470292
 21
392.255703
 31
0.0
  0
LINE
  5
13F2
100
AcDbEntity
  8
VHH-025
100
AcDbLine
 10
57.974
 20
392.692136
 30
0.0
 11
59.204782
 21
390.33829
 31
0.0
  0
ARC
  5
13F3
100
AcDbEntity
  8
VHH-025
100
AcDbCircle
 10
59.090785
 20
390.832858
 30
0.0
 40
0.5
100
AcDbArc
 50
273.09421
 51
359.745727
  0
LINE
  5
13F4
100
AcDbEntity
  8
VHH-025
100
AcDbLine
 10
17.825288
 20
358.2
 30
0.0
 11
18.237657
 21
349.60786
 31
0.0
  0
LINE
  5
13F5
100
AcDbEntity
  8
VHH-025
100
AcDbLine
 10
50.286878
 20
347.9
 30
0.0
 11
26.702925
 21
347.9
 31
0.0
  0
LINE
  5
13F6
100
AcDbEntity
  8
VHH-025
100
AcDbLine
 10
30.537004
 20
345.9
 30
0.0
 11
26.888476
 21
345.9
 31
0.0
  0
ARC
  5
13F7
100
AcDbEntity
  8
VHH-025
100
AcDbCircle
 10
26.888476
 20
346.9
 30
0.0
 40
1.0
100
AcDbArc
 50
90.0
 51
270.0
  0
LINE
  5
13F8
100
AcDbEntity
  8
VHH-025
100
AcDbLine
 10
26.888476
 20
345.3
 30
0.0
 11
30.288476
 21
345.3
 31
0.0
  0
LINE
  5
13F9
100
AcDbEntity
  8
VHH-025
100
AcDbLine
 10
30.288476
 20
345.3
 30
0.0
 11
31.288476
 21
344.3
 31
0.0
  0
LINE
  5
13FA
100
AcDbEntity
  8
VHH-025
100
AcDbLine
 10
30.537004
 20
345.9
 30
0.0
 11
31.537004
 21
344.9
 31
0.0
  0
ARC
  5
13FB
100
AcDbEntity
  8
VHH-025
100
AcDbCircle
 10
26.888476
 20
346.9
 30
0.0
 40
1.6
100
AcDbArc
 50
141.317813
 51
270.0
  0
LINE
  5
13FC
100
AcDbEntity
  8
VHH-025
100
AcDbLine
 10
26.702925
 20
347.9
 30
0.0
 11
26.270309
 21
347.9
 31
0.0
  0
LINE
  5
13FD
100
AcDbEntity
  8
VHH-025
100
AcDbLine
 10
26.270309
 20
347.9
 30
0.0
 11
25.866665
 21
347.9
 31
0.0
  0
LINE
  5
13FE
100
AcDbEntity
  8
VHH-025
100
AcDbLine
 10
25.866665
 20
347.9
 30
0.0
 11
25.676738
 21
347.9
 31
0.0
  0
LINE
  5
13FF
100
AcDbEntity
  8
VHH-025
100
AcDbLine
 10
25.676738
 20
347.9
 30
0.0
 11
25.498707
 21
347.9
 31
0.0
  0
LINE
  5
1400
100
AcDbEntity
  8
VHH-025
100
AcDbLine
 10
25.498707
 20
347.9
 30
0.0
 11
25.178898
 21
347.9
 31
0.0
  0
LINE
  5
1401
100
AcDbEntity
  8
VHH-025
100
AcDbLine
 10
25.178898
 20
347.9
 30
0.0
 11
25.106539
 21
347.9
 31
0.0
  0
LINE
  5
1402
100
AcDbEntity
  8
VHH-025
100
AcDbLine
 10
25.106539
 20
347.9
 30
0.0
 11
25.037342
 21
347.9
 31
0.0
  0
LINE
  5
1403
100
AcDbEntity
  8
VHH-025
100
AcDbLine
 10
25.037342
 20
347.9
 30
0.0
 11
24.910563
 21
347.9
 31
0.0
  0
LINE
  5
1404
100
AcDbEntity
  8
VHH-025
100
AcDbLine
 10
24.910563
 20
347.9
 30
0.0
 11
24.703876
 21
347.9
 31
0.0
  0
LINE
  5
1405
100
AcDbEntity
  8
VHH-025
100
AcDbLine
 10
35.252935
 20
346.5
 30
0.0
 11
35.252935
 21
347.1
 31
0.0
  0
LINE
  5
1406
100
AcDbEntity
  8
VHH-025
100
AcDbLine
 10
40.288476
 20
344.3
 30
0.0
 11
40.288476
 21
344.9
 31
0.0
  0
LINE
  5
1407
100
AcDbEntity
  8
VHH-025
100
AcDbLine
 10
40.288476
 20
344.9
 30
0.0
 11
40.288476
 21
345.9
 31
0.0
  0
LINE
  5
1408
100
AcDbEntity
  8
VHH-025
100
AcDbLine
 10
40.288476
 20
345.9
 30
0.0
 11
30.537004
 21
345.9
 31
0.0
  0
LINE
  5
1409
100
AcDbEntity
  8
VHH-025
100
AcDbLine
 10
31.537004
 20
344.9
 30
0.0
 11
40.288476
 21
344.9
 31
0.0
  0
LINE
  5
140A
100
AcDbEntity
  8
VHH-025
100
AcDbLine
 10
31.288476
 20
344.3
 30
0.0
 11
40.288476
 21
344.3
 31
0.0
  0
LINE
  5
140B
100
AcDbEntity
  8
VHH-025
100
AcDbLine
 10
11.194017
 20
358.2
 30
0.0
 11
12.272117
 21
349.479886
 31
0.0
  0
LINE
  5
140C
100
AcDbEntity
  8
VHH-025
100
AcDbLine
 10
13.332531
 20
359.2
 30
0.0
 11
13.191755
 21
358.2
 31
0.0
  0
SPLINE
  5
140D
100
AcDbEntity
  8
VHH-025
100
AcDbSpline
210
0.0
220
0.0
230
1.0
 70
     8
 71
     3
 72
    11
 73
     7
 74
     5
 42
0.0000001
 43
0.0000001
 44
0.0000000001
 40
0.0
 40
0.0
 40
0.0
 40
0.0
 40
0.6629926957091156
 40
1.324539577355201
 40
2.135160944775842
 40
2.616402084269122
 40
2.616402084269122
 40
2.616402084269122
 40
2.616402084269122
 10
66.59373324357147
 20
388.9532061030804
 30
0.0
 10
66.814705625524
 20
388.9875970665304
 30
0.0
 10
67.2561685063262
 20
389.0563039957129
 30
0.0
 10
67.85445063076157
 20
389.4821643961865
 30
0.0
 10
68.20655618240127
 20
390.0653584337161
 30
0.0
 10
68.25352590904827
 20
390.4958003102692
 30
0.0
 10
68.27102294503493
 20
390.6561473580777
 30
0.0
 11
66.59373324357147
 21
388.9532061030804
 31
0.0
 11
67.23903182123286
 21
389.1053542553263
 31
0.0
 11
67.78296539066286
 21
389.4818918346763
 31
0.0
 11
68.19273592861827
 21
390.1813166752008
 31
0.0
 11
68.27102294503493
 21
390.6561473580777
 31
0.0
  0
SPLINE
  5
140E
100
AcDbEntity
  8
VHH-025
100
AcDbSpline
210
0.0
220
0.0
230
1.0
 70
     8
 71
     3
 72
    20
 73
    16
 74
     0
 42
0.0000001
 43
0.0000001
 40
0.0
 40
0.0
 40
0.0
 40
0.0
 40
0.3918367249981683
 40
0.3918367249981683
 40
0.6525501684806338
 40
0.6525501684806338
 40
1.182440120300543
 40
1.182440120300543
 40
1.712330072120452
 40
1.712330072120452
 40
2.006270928035041
 40
2.006270928035041
 40
2.315289501487082
 40
2.315289501487082
 40
2.616402084268149
 40
2.616402084268149
 40
2.616402084268149
 40
2.616402084268149
 10
66.48608491189225
 20
389.6448793183244
 30
0.0
 10
66.61668226993061
 20
389.6652047948719
 30
0.0
 10
66.7288643086049
 20
389.6834693973924
 30
0.0
 10
66.87847777287061
 20
389.7193358176973
 30
0.0
 10
66.92818401844125
 20
389.7348291204525
 30
0.0
 10
67.05100047534688
 20
389.7841206296579
 30
0.0
 10
67.13560427655647
 20
389.8366299244717
 30
0.0
 10
67.29634498311497
 20
389.9782206218096
 30
0.0
 10
67.36963242402271
 20
390.0656042831997
 30
0.0
 10
67.45405571877927
 20
390.2052175410244
 30
0.0
 10
67.47871790990394
 20
390.255966609835
 30
0.0
 10
67.51720991721777
 20
390.3581088020209
 30
0.0
 10
67.52992113469372
 20
390.4062883098104
 30
0.0
 10
67.55438181419413
 20
390.5462616220848
 30
0.0
 10
67.56420569277179
 20
390.6317513268877
 30
0.0
 10
67.57515358825367
 20
390.7320804753008
 30
0.0
  0
SPLINE
  5
140F
100
AcDbEntity
  8
VHH-025
100
AcDbSpline
210
0.0
220
0.0
230
1.0
 70
     8
 71
     3
 72
    13
 73
     9
 74
     0
 42
0.0000001
 43
0.0000001
 40
84.6955679326532
 40
84.6955679326532
 40
84.6955679326532
 40
84.6955679326532
 40
85.81548028374967
 40
86.6565862794542
 40
87.78626872105837
 40
90.14984869879972
 40
105.9639654671869
 40
122.7164926965437
 40
122.7164926965437
 40
122.7164926965437
 40
122.7164926965437
 10
158.8841095482421
 20
394.5965874588537
 30
0.0
 10
158.8429730824973
 20
394.2189825823033
 30
0.0
 10
158.7659136701277
 20
393.5572200834922
 30
0.0
 10
158.1624989493066
 20
392.6939072621289
 30
0.0
 10
156.9816928484688
 20
391.7768441575299
 30
0.0
 10
150.2451174528432
 20
391.9075542287346
 30
0.0
 10
138.9106756355376
 20
392.066341626607
 30
0.0
 10
127.9970602398861
 20
392.2371169104135
 30
0.0
 10
122.3830141902217
 20
392.3249650040716
 30
0.0
  0
SPLINE
  5
1410
100
AcDbEntity
  8
VHH-025
100
AcDbSpline
210
0.0
220
0.0
230
1.0
 70
     8
 71
     3
 72
    13
 73
     9
 74
     7
 42
0.0000001
 43
0.0000001
 44
0.0000000001
 40
0.0
 40
0.0
 40
0.0
 40
0.0
 40
3.28447827110949
 40
5.848013776662059
 40
8.811210366641562
 40
13.31059109350662
 40
22.19952180646463
 40
44.15308546549832
 40
44.15308546549832
 40
44.15308546549832
 40
44.15308546549832
 10
162.3841095482421
 20
379.4177674662405
 30
0.0
 10
162.2359313174271
 20
378.3136587897743
 30
0.0
 10
161.9720999677634
 20
376.3477932190681
 30
0.0
 10
160.1739606140426
 20
373.9197369067371
 30
0.0
 10
157.309459343277
 20
371.9983223500518
 30
0.0
 10
151.7020361919631
 20
371.8006041290067
 30
0.0
 10
140.0381697686387
 20
371.7017952914096
 30
0.0
 10
129.7257815267732
 20
371.6672750274954
 30
0.0
 10
122.3854649812328
 20
371.6427036422428
 30
0.0
 11
162.3841095482421
 21
379.4177674662405
 31
0.0
 11
161.6463434481666
 21
376.2172208418387
 31
0.0
 11
160.1584566185174
 21
374.1296607659642
 31
0.0
 11
157.6810208437309
 21
372.5039775210871
 31
0.0
 11
153.2268513424805
 21
371.8677378025722
 31
0.0
 11
144.338801282638
 21
371.7426164474727
 31
0.0
 11
122.3854649812328
 21
371.6427036422428
 31
0.0
  0
SPLINE
  5
1411
100
AcDbEntity
  8
VHH-025
100
AcDbSpline
210
0.0
220
0.0
230
1.0
 70
     8
 71
     3
 72
    12
 73
     8
 74
     0
 42
0.0000001
 43
0.0000001
 40
0.3004138362153372
 40
0.3004138362153372
 40
0.3004138362153372
 40
0.3004138362153372
 40
0.6531836346659445
 40
2.201425060069765
 40
3.775834883110177
 40
5.170639203720888
 40
5.549375987942882
 40
5.549375987942882
 40
5.549375987942882
 40
5.549375987942882
 10
142.0625927588298
 20
382.7571220457448
 30
0.0
 10
142.052678470045
 20
382.8152425106727
 30
0.0
 10
142.0054678229462
 20
383.1276352444983
 30
0.0
 10
142.0522997928274
 20
383.6814488339277
 30
0.0
 10
141.9103694902842
 20
384.5627740513155
 30
0.0
 10
141.2742331872941
 20
384.6342724435162
 30
0.0
 10
140.9658102381163
 20
384.6320828407933
 30
0.0
 10
140.844336127664
 20
384.6333369542235
 30
0.0
  0
SPLINE
  5
1412
100
AcDbEntity
  8
VHH-025
100
AcDbSpline
210
0.0
220
0.0
230
1.0
 70
     8
 71
     3
 72
    12
 73
     8
 74
     0
 42
0.0000001
 43
0.0000001
 40
1.820596868471746
 40
1.820596868471746
 40
1.820596868471746
 40
1.820596868471746
 40
4.503295473557569
 40
6.216955522489968
 40
7.774552440697402
 40
9.232972112989187
 40
10.8164521343443
 40
10.8164521343443
 40
10.8164521343443
 40
10.8164521343443
 10
140.844336127664
 20
384.6333369542235
 30
0.0
 10
141.3071565936716
 20
384.6479974493222
 30
0.0
 10
142.0191417228816
 20
384.7817068106942
 30
0.0
 10
142.7282331288515
 20
385.5649230906037
 30
0.0
 10
142.7816666591716
 20
386.4671833980137
 30
0.0
 10
142.0598277182944
 20
386.9518270163971
 30
0.0
 10
141.5505696186519
 20
386.9539290813463
 30
0.0
 10
141.2854721112708
 20
386.955023324479
 30
0.0
  0
SPLINE
  5
1413
100
AcDbEntity
  8
VHH-025
100
AcDbSpline
210
0.0
220
0.0
230
1.0
 70
     8
 71
     3
 72
    13
 73
     9
 74
     0
 42
0.0000001
 43
0.0000001
 40
84.6955679326532
 40
84.6955679326532
 40
84.6955679326532
 40
84.6955679326532
 40
85.81548028374967
 40
86.6565862794542
 40
87.78626872105837
 40
90.14984869879972
 40
105.9639654671869
 40
122.7164926965437
 40
122.7164926965437
 40
122.7164926965437
 40
122.7164926965437
 10
85.88191883220316
 20
394.5965874588537
 30
0.0
 10
85.92305529794794
 20
394.2189825823033
 30
0.0
 10
86.00011471031757
 20
393.5572200834922
 30
0.0
 10
86.60352943113867
 20
392.6939072621289
 30
0.0
 10
87.78433553197647
 20
391.7768441575299
 30
0.0
 10
94.52091092760202
 20
391.9075542287346
 30
0.0
 10
105.8553527449075
 20
392.066341626607
 30
0.0
 10
116.7689681405572
 20
392.2371169104135
 30
0.0
 10
122.3830141902217
 20
392.3249650040716
 30
0.0
  0
SPLINE
  5
1414
100
AcDbEntity
  8
VHH-025
100
AcDbSpline
210
0.0
220
0.0
230
1.0
 70
    11
 71
     3
 72
    15
 73
    11
 74
     9
 42
0.0000001
 43
0.0000001
 44
0.0000000001
 40
0.0
 40
0.0
 40
0.0
 40
0.0
 40
0.5147647394070095
 40
2.457789820814682
 40
3.944434646996009
 40
5.591791425459506
 40
7.10451629126322
 40
9.337163693807024
 40
10.73578930127772
 40
12.20445453441465
 40
12.20445453441465
 40
12.20445453441465
 40
12.20445453441465
 10
111.93482235
 20
379.0242162485228
 30
0.0
 10
111.9991232414264
 20
379.1825929530062
 30
0.0
 10
112.3061335401488
 20
379.9387765497729
 30
0.0
 10
113.5593614260179
 20
380.9030339837352
 30
0.0
 10
115.3974705592513
 20
380.1774958629282
 30
0.0
 10
115.7305193739803
 20
378.4474845534907
 30
0.0
 10
114.9692053604823
 20
376.7484929961639
 30
0.0
 10
112.880309180582
 20
376.0077180773013
 30
0.0
 10
111.5922591297213
 20
377.5563404946078
 30
0.0
 10
111.8187901109233
 20
378.5270206935692
 30
0.0
 10
111.93482235
 20
379.0242162485228
 30
0.0
 11
111.93482235
 21
379.0242162485228
 31
0.0
 11
112.1485122473623
 21
379.4925317027864
 31
0.0
 11
113.7531540854397
 21
380.5881917953657
 31
0.0
 11
115.1345150006891
 21
380.0386875997192
 31
0.0
 11
115.5573813965202
 21
378.4465292009326
 31
0.0
 11
114.9089858784682
 21
377.079810586224
 31
0.0
 11
112.7523689597474
 21
376.5021273772136
 31
0.0
 11
111.8361537131968
 21
377.5588691677476
 31
0.0
 11
111.93482235
 21
379.0242162485228
 31
0.0
  0
SPLINE
  5
1415
100
AcDbEntity
  8
VHH-025
100
AcDbSpline
210
0.0
220
0.0
230
1.0
 70
     8
 71
     3
 72
    12
 73
     8
 74
     6
 42
0.0000001
 43
0.0000001
 44
0.0000000001
 40
0.0
 40
0.0
 40
0.0
 40
0.0
 40
1.006217164968555
 40
1.679832645747035
 40
2.564456909785589
 40
3.472698377669629
 40
4.209033191012977
 40
4.209033191012977
 40
4.209033191012977
 40
4.209033191012977
 10
109.890967159039
 20
385.0603060096109
 30
0.0
 10
110.2438189037604
 20
385.051519379014
 30
0.0
 10
110.8328884411602
 20
385.036850508877
 30
0.0
 10
111.4264078341391
 20
384.2873096992525
 30
0.0
 10
111.2252453586499
 20
383.3855605123127
 30
0.0
 10
110.5177982364713
 20
382.8137757371602
 30
0.0
 10
109.96264261199
 20
382.7746431053881
 30
0.0
 10
109.7140798558593
 20
382.7571220457448
 30
0.0
 11
109.890967159039
 21
385.0603060096109
 31
0.0
 11
110.8776591937767
 21
384.863045238897
 31
0.0
 11
111.2864268319462
 21
384.3276324692233
 31
0.0
 11
111.1406804925682
 21
383.4550970297805
 31
0.0
 11
110.4406940402877
 21
382.8763729758411
 31
0.0
 11
109.7140798558593
 21
382.7571220457448
 31
0.0
  0
SPLINE
  5
1416
100
AcDbEntity
  8
VHH-025
100
AcDbSpline
210
0.0
220
0.0
230
-1.0
 70
     8
 71
     3
 72
    12
 73
     8
 74
     6
 42
0.0000001
 43
0.0000001
 44
0.0000000001
 40
0.0
 40
0.0
 40
0.0
 40
0.0
 40
1.411106911324726
 40
2.125038086019199
 40
2.805834388314815
 40
3.535044224462143
 40
4.326784235138798
 40
4.326784235138798
 40
4.326784235138798
 40
4.326784235138798
 10
109.4743964705085
 20
385.0603060096109
 30
0.0
 10
109.9505858097345
 20
385.0693598300479
 30
0.0
 10
110.66769694702
 20
385.0829943130897
 30
0.0
 10
111.5133386943826
 20
385.6608007999172
 30
0.0
 10
111.5139366060596
 20
386.499166975721
 30
0.0
 10
110.8231257615861
 20
386.9486213022879
 30
0.0
 10
110.3138288751864
 20
386.9528316180981
 30
0.0
 10
110.0487111771126
 20
386.955023324479
 30
0.0
 11
109.4743964705085
 21
385.0603060096109
 31
0.0
 11
110.869164805621
 21
385.2744181450816
 31
0.0
 11
111.4132873173657
 21
385.736617684689
 31
0.0
 11
111.4106956312061
 21
386.4174090538927
 31
0.0
 11
110.8353685875008
 21
386.865455678604
 31
0.0
 11
110.0487111771126
 21
386.955023324479
 31
0.0
  0
SPLINE
  5
1417
100
AcDbEntity
  8
VHH-025
100
AcDbSpline
210
0.0
220
0.0
230
-1.0
 70
     8
 71
     3
 72
    12
 73
     8
 74
     6
 42
0.0000001
 43
0.0000001
 44
0.0000000001
 40
0.0
 40
0.0
 40
0.0
 40
0.0
 40
1.411106911326524
 40
2.125038086022383
 40
2.805834388318013
 40
3.53504422446247
 40
4.326784235140932
 40
4.326784235140932
 40
4.326784235140932
 40
4.326784235140932
 10
108.1554723542612
 20
378.7082166641557
 30
0.0
 10
108.6316616934873
 20
378.7172704845928
 30
0.0
 10
109.3487728307731
 20
378.7309049676348
 30
0.0
 10
110.1944145781406
 20
379.3087114544614
 30
0.0
 10
110.1950124898106
 20
380.1470776302642
 30
0.0
 10
109.5042016453421
 20
380.596531956834
 30
0.0
 10
108.994904758942
 20
380.6007422726434
 30
0.0
 10
108.7297870608672
 20
380.6029339790238
 30
0.0
 11
108.1554723542612
 21
378.7082166641557
 31
0.0
 11
109.5502406893756
 21
378.9223287996264
 31
0.0
 11
110.0943632011221
 21
379.3845283392338
 31
0.0
 11
110.0917715149589
 21
380.0653197084375
 31
0.0
 11
109.5164444712572
 21
380.5133663331489
 31
0.0
 11
108.7297870608672
 21
380.6029339790238
 31
0.0
  0
SPLINE
  5
1418
100
AcDbEntity
  8
VHH-025
100
AcDbSpline
210
0.0
220
0.0
230
1.0
 70
     8
 71
     3
 72
    12
 73
     8
 74
     6
 42
0.0000001
 43
0.0000001
 44
0.0000000001
 40
0.0
 40
0.0
 40
0.0
 40
0.0
 40
1.006217164968555
 40
1.679832645748139
 40
2.564456909786993
 40
3.472698377671032
 40
4.209033191014381
 40
4.209033191014381
 40
4.209033191014381
 40
4.209033191014381
 10
108.5720430427936
 20
378.7082166641557
 30
0.0
 10
108.9248947875147
 20
378.6994300335586
 30
0.0
 10
109.5139643249144
 20
378.6847611634211
 30
0.0
 10
110.1074837178965
 20
377.9352203537978
 30
0.0
 10
109.9063212424038
 20
377.0334711668577
 30
0.0
 10
109.198874120226
 20
376.4616863917049
 30
0.0
 10
108.6437184957446
 20
376.422553759933
 30
0.0
 10
108.3951557396139
 20
376.4050327002896
 30
0.0
 11
108.5720430427936
 21
378.7082166641557
 31
0.0
 11
109.5587350775313
 21
378.5109558934418
 31
0.0
 11
109.9675027157027
 21
377.9755431237681
 31
0.0
 11
109.8217563763228
 21
377.1030076843253
 31
0.0
 11
109.1217699240423
 21
376.5242836303859
 31
0.0
 11
108.3951557396139
 21
376.4050327002896
 31
0.0
  0
SPLINE
  5
1419
100
AcDbEntity
  8
VHH-025
100
AcDbSpline
210
0.0
220
0.0
230
1.0
 70
     8
 71
     3
 72
    12
 73
     8
 74
     0
 42
0.0000001
 43
0.0000001
 40
0.3004138362153372
 40
0.3004138362153372
 40
0.3004138362153372
 40
0.3004138362153372
 40
0.6531836346659445
 40
2.201425060069765
 40
3.775834883110177
 40
5.170639203720888
 40
5.549375987942882
 40
5.549375987942882
 40
5.549375987942882
 40
5.549375987942882
 10
115.993196507974
 20
382.7571220457448
 30
0.0
 10
115.9832822191892
 20
382.8152425106727
 30
0.0
 10
115.9360715720904
 20
383.1276352444983
 30
0.0
 10
115.9829035419716
 20
383.6814488339277
 30
0.0
 10
115.8409732394284
 20
384.5627740513155
 30
0.0
 10
115.2048369364383
 20
384.6342724435162
 30
0.0
 10
114.8964139872605
 20
384.6320828407933
 30
0.0
 10
114.7749398768082
 20
384.6333369542235
 30
0.0
  0
SPLINE
  5
141A
100
AcDbEntity
  8
VHH-025
100
AcDbSpline
210
0.0
220
0.0
230
1.0
 70
     8
 71
     3
 72
    12
 73
     8
 74
     0
 42
0.0000001
 43
0.0000001
 40
1.820596868471746
 40
1.820596868471746
 40
1.820596868471746
 40
1.820596868471746
 40
4.503295473557569
 40
6.216955522489968
 40
7.774552440697402
 40
9.232972112989187
 40
10.8164521343443
 40
10.8164521343443
 40
10.8164521343443
 40
10.8164521343443
 10
114.7749398768082
 20
384.6333369542235
 30
0.0
 10
115.2377603428158
 20
384.6479974493222
 30
0.0
 10
115.9497454720258
 20
384.7817068106942
 30
0.0
 10
116.6588368779957
 20
385.5649230906037
 30
0.0
 10
116.7122704083158
 20
386.4671833980137
 30
0.0
 10
115.9904314674386
 20
386.9518270163971
 30
0.0
 10
115.4811733677961
 20
386.9539290813463
 30
0.0
 10
115.216075860415
 20
386.955023324479
 30
0.0
  0
SPLINE
  5
141B
100
AcDbEntity
  8
VHH-025
100
AcDbSpline
210
0.0
220
0.0
230
1.0
 70
    11
 71
     3
 72
    15
 73
    11
 74
     9
 42
0.0000001
 43
0.0000001
 44
0.0000000001
 40
0.0
 40
0.0
 40
0.0
 40
0.0
 40
0.5147647394070095
 40
2.457789820814682
 40
3.944434646996009
 40
5.59179142545904
 40
7.104516291262754
 40
9.337163693806559
 40
10.73578930127726
 40
12.20445453441431
 40
12.20445453441431
 40
12.20445453441431
 40
12.20445453441431
 10
133.9454197388622
 20
385.3701369677583
 30
0.0
 10
134.0097206302886
 20
385.5285136722417
 30
0.0
 10
134.3167309290109
 20
386.2846972690083
 30
0.0
 10
135.5699588148799
 20
387.2489547029707
 30
0.0
 10
137.4080679481138
 20
386.5234165821638
 30
0.0
 10
137.74111676284
 20
384.7934052727259
 30
0.0
 10
136.9798027493428
 20
383.0944137153995
 30
0.0
 10
134.8909065694425
 20
382.3536387965367
 30
0.0
 10
133.6028565185811
 20
383.9022612138433
 30
0.0
 10
133.8293874997847
 20
384.8729414128046
 30
0.0
 10
133.9454197388622
 20
385.3701369677583
 30
0.0
 11
133.9454197388622
 21
385.3701369677583
 31
0.0
 11
134.1591096362244
 21
385.8384524220218
 31
0.0
 11
135.7637514743019
 21
386.9341125146011
 31
0.0
 11
137.1451123895512
 21
386.3846083189546
 31
0.0
 11
137.5679787853805
 21
384.7924499201681
 31
0.0
 11
136.9195832673285
 21
383.4257313054595
 31
0.0
 11
134.7629663486077
 21
382.848048096449
 31
0.0
 11
133.8467511020571
 21
383.904789886983
 31
0.0
 11
133.9454197388622
 21
385.3701369677583
 31
0.0
  0
LINE
  5
141C
100
AcDbEntity
  8
VHH-025
100
AcDbLine
 10
133.785646
 20
376.405033
 30
0.0
 11
136.228044
 21
380.602934
 31
0.0
  0
LINE
  5
141D
100
AcDbEntity
  8
VHH-025
100
AcDbLine
 10
134.252022
 20
377.206622
 30
0.0
 11
137.089811
 21
377.206622
 31
0.0
  0
LINE
  5
141E
100
AcDbEntity
  8
VHH-025
100
AcDbLine
 10
131.388476
 20
340.415399
 30
0.0
 11
113.388476
 21
340.415399
 31
0.0
  0
LINE
  5
141F
100
AcDbEntity
  8
VHH-025
100
AcDbLine
 10
122.53486
 20
377.206622
 30
0.0
 11
125.372649
 21
377.206622
 31
0.0
  0
LINE
  5
1420
100
AcDbEntity
  8
VHH-025
100
AcDbLine
 10
122.068484
 20
376.405033
 30
0.0
 11
124.510882
 21
380.602934
 31
0.0
  0
LINE
  5
1421
100
AcDbEntity
  8
VHH-025
100
AcDbLine
 10
123.604178
 20
382.757122
 30
0.0
 11
124.121977
 21
382.757122
 31
0.0
  0
LINE
  5
1422
100
AcDbEntity
  8
VHH-025
100
AcDbLine
 10
113.740057
 20
386.955023
 30
0.0
 11
115.216076
 21
386.955023
 31
0.0
  0
LINE
  5
1423
100
AcDbEntity
  8
VHH-025
100
AcDbLine
 10
113.257991
 20
384.633337
 30
0.0
 11
114.77494
 21
384.633337
 31
0.0
  0
LINE
  5
1424
100
AcDbEntity
  8
VHH-025
100
AcDbLine
 10
112.868421
 20
382.757122
 30
0.0
 11
113.740057
 21
386.955023
 31
0.0
  0
LINE
  5
1425
100
AcDbEntity
  8
VHH-025
100
AcDbLine
 10
107.760267
 20
382.757122
 30
0.0
 11
109.71408
 21
382.757122
 31
0.0
  0
LINE
  5
1426
100
AcDbEntity
  8
VHH-025
100
AcDbLine
 10
108.631903
 20
386.955023
 30
0.0
 11
107.760267
 21
382.757122
 31
0.0
  0
LINE
  5
1427
100
AcDbEntity
  8
VHH-025
100
AcDbLine
 10
108.631903
 20
386.955023
 30
0.0
 11
110.048711
 21
386.955023
 31
0.0
  0
LINE
  5
1428
100
AcDbEntity
  8
VHH-025
100
AcDbLine
 10
108.238491
 20
385.060306
 30
0.0
 11
109.890967
 21
385.060306
 31
0.0
  0
LINE
  5
1429
100
AcDbEntity
  8
VHH-025
100
AcDbLine
 10
117.836216
 20
380.602934
 30
0.0
 11
116.96458
 21
376.405033
 31
0.0
  0
LINE
  5
142A
100
AcDbEntity
  8
VHH-025
100
AcDbLine
 10
118.10064
 20
380.602934
 30
0.0
 11
119.821572
 21
376.405033
 31
0.0
  0
LINE
  5
142B
100
AcDbEntity
  8
VHH-025
100
AcDbLine
 10
121.019442
 20
380.602934
 30
0.0
 11
120.147806
 21
376.405033
 31
0.0
  0
LINE
  5
142C
100
AcDbEntity
  8
VHH-025
100
AcDbLine
 10
117.836216
 20
380.602934
 30
0.0
 11
118.10064
 21
380.602934
 31
0.0
  0
LINE
  5
142D
100
AcDbEntity
  8
VHH-025
100
AcDbLine
 10
119.821572
 20
376.405033
 30
0.0
 11
120.147806
 21
376.405033
 31
0.0
  0
LINE
  5
142E
100
AcDbEntity
  8
VHH-025
100
AcDbLine
 10
120.953235
 20
386.955023
 30
0.0
 11
121.6411
 21
382.757122
 31
0.0
  0
LINE
  5
142F
100
AcDbEntity
  8
VHH-025
100
AcDbLine
 10
120.647985
 20
386.955023
 30
0.0
 11
120.953235
 21
386.955023
 31
0.0
  0
LINE
  5
1430
100
AcDbEntity
  8
VHH-025
100
AcDbLine
 10
118.205587
 20
382.757122
 30
0.0
 11
120.647985
 21
386.955023
 31
0.0
  0
LINE
  5
1431
100
AcDbEntity
  8
VHH-025
100
AcDbLine
 10
118.671963
 20
383.558711
 30
0.0
 11
121.509752
 21
383.558711
 31
0.0
  0
LINE
  5
1432
100
AcDbEntity
  8
VHH-025
100
AcDbLine
 10
123.23777
 20
386.955023
 30
0.0
 11
123.604178
 21
382.757122
 31
0.0
  0
LINE
  5
1433
100
AcDbEntity
  8
VHH-025
100
AcDbLine
 10
103.450973
 20
387.455023
 30
0.0
 11
101.052778
 21
375.905033
 31
0.0
  0
LINE
  5
1434
100
AcDbEntity
  8
VHH-025
100
AcDbLine
 10
106.201517
 20
387.455023
 30
0.0
 11
103.803321
 21
375.905033
 31
0.0
  0
LINE
  5
1435
100
AcDbEntity
  8
VHH-025
100
AcDbLine
 10
107.312979
 20
380.602934
 30
0.0
 11
106.441343
 21
376.405033
 31
0.0
  0
LINE
  5
1436
100
AcDbEntity
  8
VHH-025
100
AcDbLine
 10
107.312979
 20
380.602934
 30
0.0
 11
108.729787
 21
380.602934
 31
0.0
  0
LINE
  5
1437
100
AcDbEntity
  8
VHH-025
100
AcDbLine
 10
106.441343
 20
376.405033
 30
0.0
 11
108.395156
 21
376.405033
 31
0.0
  0
LINE
  5
1438
100
AcDbEntity
  8
VHH-025
100
AcDbLine
 10
106.919567
 20
378.708217
 30
0.0
 11
108.572043
 21
378.708217
 31
0.0
  0
LINE
  5
1439
100
AcDbEntity
  8
VHH-025
100
AcDbLine
 10
128.311709
 20
380.602934
 30
0.0
 11
129.213821
 21
380.602934
 31
0.0
  0
LINE
  5
143A
100
AcDbEntity
  8
VHH-025
100
AcDbLine
 10
129.213821
 20
380.602934
 30
0.0
 11
129.533587
 21
376.405033
 31
0.0
  0
LINE
  5
143B
100
AcDbEntity
  8
VHH-025
100
AcDbLine
 10
131.896987
 20
380.602934
 30
0.0
 11
129.668214
 21
376.405033
 31
0.0
  0
LINE
  5
143C
100
AcDbEntity
  8
VHH-025
100
AcDbLine
 10
128.311709
 20
380.602934
 30
0.0
 11
127.428717
 21
376.405033
 31
0.0
  0
LINE
  5
143D
100
AcDbEntity
  8
VHH-025
100
AcDbLine
 10
132.806747
 20
380.602934
 30
0.0
 11
131.923755
 21
376.405033
 31
0.0
  0
LINE
  5
143E
100
AcDbEntity
  8
VHH-025
100
AcDbLine
 10
129.533587
 20
376.405033
 30
0.0
 11
129.668214
 21
376.405033
 31
0.0
  0
LINE
  5
143F
100
AcDbEntity
  8
VHH-025
100
AcDbLine
 10
131.896987
 20
380.602934
 30
0.0
 11
132.806747
 21
380.602934
 31
0.0
  0
LINE
  5
1440
100
AcDbEntity
  8
VHH-025
100
AcDbLine
 10
130.533503
 20
386.971731
 30
0.0
 11
129.662744
 21
382.757122
 31
0.0
  0
LINE
  5
1441
100
AcDbEntity
  8
VHH-025
100
AcDbLine
 10
128.437994
 20
386.955023
 30
0.0
 11
127.570687
 21
382.757122
 31
0.0
  0
LINE
  5
1442
100
AcDbEntity
  8
VHH-025
100
AcDbLine
 10
129.662744
 20
382.757122
 30
0.0
 11
132.809292
 21
382.757122
 31
0.0
  0
LINE
  5
1443
100
AcDbEntity
  8
VHH-025
100
AcDbLine
 10
124.510882
 20
380.602934
 30
0.0
 11
124.816132
 21
380.602934
 31
0.0
  0
LINE
  5
1444
100
AcDbEntity
  8
VHH-025
100
AcDbLine
 10
124.816132
 20
380.602934
 30
0.0
 11
125.503997
 21
376.405033
 31
0.0
  0
LINE
  5
1445
100
AcDbEntity
  8
VHH-025
100
AcDbLine
 10
126.247225
 20
386.955023
 30
0.0
 11
124.121977
 21
382.757122
 31
0.0
  0
LINE
  5
1446
100
AcDbEntity
  8
VHH-025
100
AcDbLine
 10
99.128688
 20
387.455023
 30
0.0
 11
96.730493
 21
375.905033
 31
0.0
  0
LINE
  5
1447
100
AcDbEntity
  8
VHH-025
100
AcDbLine
 10
101.093364
 20
387.455023
 30
0.0
 11
98.695168
 21
375.905033
 31
0.0
  0
CIRCLE
  5
1448
100
AcDbEntity
  8
VHH-025
100
AcDbCircle
 10
144.477226
 20
380.207773
 30
0.0
 40
0.724411
  0
LINE
  5
1449
100
AcDbEntity
  8
VHH-025
100
AcDbLine
 10
136.533294
 20
380.602934
 30
0.0
 11
137.221159
 21
376.405033
 31
0.0
  0
LINE
  5
144A
100
AcDbEntity
  8
VHH-025
100
AcDbLine
 10
136.228044
 20
380.602934
 30
0.0
 11
136.533294
 21
380.602934
 31
0.0
  0
LINE
  5
144B
100
AcDbEntity
  8
VHH-025
100
AcDbLine
 10
139.163195
 20
376.37532
 30
0.0
 11
140.040553
 21
380.602934
 31
0.0
  0
LINE
  5
144C
100
AcDbEntity
  8
VHH-025
100
AcDbLine
 10
138.937817
 20
382.757122
 30
0.0
 11
139.809454
 21
386.955023
 31
0.0
  0
LINE
  5
144D
100
AcDbEntity
  8
VHH-025
100
AcDbLine
 10
137.788235
 20
380.602934
 30
0.0
 11
142.304063
 21
380.602934
 31
0.0
  0
LINE
  5
144E
100
AcDbEntity
  8
VHH-025
100
AcDbLine
 10
139.327387
 20
384.633337
 30
0.0
 11
140.844336
 21
384.633337
 31
0.0
  0
LINE
  5
144F
100
AcDbEntity
  8
VHH-025
100
AcDbLine
 10
139.809453
 20
386.955023
 30
0.0
 11
141.285472
 21
386.955023
 31
0.0
  0
CIRCLE
  5
1450
100
AcDbEntity
  8
VHH-025
100
AcDbCircle
 10
145.425203
 20
386.461906
 30
0.0
 40
0.724411
  0
ARC
  5
1451
100
AcDbEntity
  8
VHH-025
100
AcDbCircle
 10
118.089515
 20
-282.949534
 30
0.0
 40
730.516587
100
AcDbArc
 50
89.663337
 51
92.80173
  0
SPLINE
  5
1452
100
AcDbEntity
  8
VHH-025
100
AcDbSpline
210
0.0
220
0.0
230
-1.0
 70
     8
 71
     3
 72
    15
 73
    11
 74
     9
 42
0.0000001
 43
0.0000001
 44
0.0000000001
 40
0.0
 40
0.0
 40
0.0
 40
0.0
 40
8.727930916723018
 40
16.25763323255779
 40
20.36216076943303
 40
21.62307303412681
 40
23.69549543386659
 40
25.38624445710535
 40
45.72281463408979
 40
79.43205808847309
 40
79.43205808847309
 40
79.43205808847309
 40
79.43205808847309
 10
17.24499321854455
 20
421.700000154683
 30
0.0
 10
17.94377177560715
 20
424.5165902787392
 30
0.0
 10
19.24539590621669
 20
429.7630902384963
 30
0.0
 10
21.17548286321456
 20
436.3571665177101
 30
0.0
 10
23.48190154120433
 20
439.9812058379029
 30
0.0
 10
25.02015536013319
 20
441.9824605104744
 30
0.0
 10
26.70990293337769
 20
442.5205618189427
 30
0.0
 10
34.64592565241602
 20
443.305266123906
 30
0.0
 10
53.20684814205724
 20
445.2216375837597
 30
0.0
 10
71.17493445571468
 20
446.2672750766846
 30
0.0
 10
82.38191896126227
 20
446.9194560033047
 30
0.0
 11
17.24499321854455
 21
421.700000154683
 31
0.0
 11
19.41032710732542
 21
430.1550641542744
 31
0.0
 11
21.90984920250775
 21
437.2577964638003
 31
0.0
 11
24.07828444263577
 21
440.7427691911452
 31
0.0
 11
24.91409871520227
 21
441.6868635937499
 31
0.0
 11
26.83024707669392
 21
442.476363473228
 31
0.0
 11
28.50635571457678
 21
442.6983817013024
 31
0.0
 11
48.74937371624219
 21
444.6467935539821
 31
0.0
 11
82.38191896126227
 21
446.9194560033047
 31
0.0
  0
LINE
  5
1453
100
AcDbEntity
  8
VHH-025
100
AcDbLine
 10
44.273618
 20
423.934137
 30
0.0
 11
66.617386
 21
424.978119
 31
0.0
  0
LINE
  5
1454
100
AcDbEntity
  8
VHH-025
100
AcDbLine
 10
61.675086
 20
424.046433
 30
0.0
 11
66.650057
 21
424.278882
 31
0.0
  0
SPLINE
  5
1455
100
AcDbEntity
  8
VHH-025
100
AcDbSpline
210
0.0
220
0.0
230
-1.0
 70
     8
 71
     3
 72
    11
 73
     7
 74
     5
 42
0.0000001
 43
0.0000001
 44
0.0000000001
 40
0.0
 40
0.0
 40
0.0
 40
0.0
 40
0.3788822097076336
 40
0.7856242620079092
 40
1.206550869508587
 40
1.477512281568232
 40
1.477512281568232
 40
1.477512281568232
 40
1.477512281568232
 10
58.10893863962519
 20
421.9537630751856
 30
0.0
 10
58.2370708827166
 20
421.9545274824946
 30
0.0
 10
58.50275714704604
 20
421.9561125052605
 30
0.0
 10
58.86299169881848
 20
421.7049528597443
 30
0.0
 10
58.96465630554583
 20
421.3335306680012
 30
0.0
 10
58.96706775736744
 20
421.1036668463561
 30
0.0
 10
58.96801214485822
 20
421.013646172586
 30
0.0
 11
58.10893863962519
 21
421.9537630751856
 31
0.0
 11
58.48609600080635
 21
421.9176513909296
 31
0.0
 11
58.81757464441761
 21
421.6819375688082
 31
0.0
 11
58.95572914804507
 21
421.2843290401906
 31
0.0
 11
58.96801214485822
 21
421.013646172586
 31
0.0
  0
SPLINE
  5
1456
100
AcDbEntity
  8
VHH-025
100
AcDbSpline
210
0.0
220
0.0
230
-1.0
 70
     8
 71
     3
 72
    12
 73
     8
 74
     6
 42
0.0000001
 43
0.0000001
 44
0.0000000001
 40
0.0
 40
0.0
 40
0.0
 40
0.0
 40
0.460609787038649
 40
0.8428341308476516
 40
1.231136252854545
 40
1.532631450480557
 40
1.823032378360353
 40
1.823032378360353
 40
1.823032378360353
 40
1.823032378360353
 10
45.00908857840477
 20
420.1202051532491
 30
0.0
 10
45.0195126354423
 20
420.2740984375379
 30
0.0
 10
45.0385868090712
 20
420.5556958246469
 30
0.0
 10
45.20294177000077
 20
420.9431231334712
 30
0.0
 10
45.47824043673773
 20
421.1909754753491
 30
0.0
 10
45.79073134692751
 20
421.3016695026372
 30
0.0
 10
45.98698311598414
 20
421.3243729721428
 30
0.0
 10
46.08326976726675
 20
421.3355119344141
 30
0.0
 11
45.00908857840477
 21
420.1202051532491
 31
0.0
 11
45.06826875917613
 21
420.5769973183741
 31
0.0
 11
45.22550954210965
 21
420.9253804195468
 31
0.0
 11
45.51408504859864
 21
421.1851932656681
 31
0.0
 11
45.79622795230534
 21
421.291469961512
 31
0.0
 11
46.08326976726675
 21
421.3355119344141
 31
0.0
  0
SPLINE
  5
1457
100
AcDbEntity
  8
VHH-025
100
AcDbSpline
210
0.0
220
0.0
230
-1.0
 70
     8
 71
     3
 72
    11
 73
     7
 74
     5
 42
0.0000001
 43
0.0000001
 44
0.0000000001
 40
0.0
 40
0.0
 40
0.0
 40
0.0
 40
0.7911843907099164
 40
1.600893155509014
 40
2.251444458122764
 40
2.582196256357145
 40
2.582196256357145
 40
2.582196256357145
 40
2.582196256357145
 10
42.59246224365051
 20
422.2385176264115
 30
0.0
 10
42.63592272271998
 20
422.5045943193712
 30
0.0
 10
42.72386124159677
 20
423.0429774846625
 30
0.0
 10
43.29456270679281
 20
423.5992969230046
 30
0.0
 10
43.84629611111483
 20
423.8387947754956
 30
0.0
 10
44.16589550791687
 20
423.9101023783372
 30
0.0
 10
44.27361765321075
 20
423.9341368666082
 30
0.0
 11
42.59246224365051
 21
422.2385176264115
 31
0.0
 11
42.80048021600669
 21
423.0018663431065
 31
0.0
 11
43.35940917856532
 21
423.5877218701825
 31
0.0
 11
43.95241684717984
 21
423.8552268277008
 31
0.0
 11
44.27361765321075
 21
423.9341368666082
 31
0.0
  0
LINE
  5
1458
100
AcDbEntity
  8
VHH-025
100
AcDbLine
 10
45.037707
 20
421.945316
 30
0.0
 11
59.205157
 21
422.642668
 31
0.0
  0
LINE
  5
1459
100
AcDbEntity
  8
VHH-025
100
AcDbLine
 10
46.08327
 20
421.335512
 30
0.0
 11
58.108939
 21
421.953763
 31
0.0
  0
ARC
  5
145A
100
AcDbEntity
  8
VHH-025
100
AcDbCircle
 10
45.062288
 20
421.44592
 30
0.0
 40
0.5
100
AcDbArc
 50
92.817949
 51
179.819431
  0
ARC
  5
145B
100
AcDbEntity
  8
VHH-025
100
AcDbCircle
 10
59.229738
 20
422.143273
 30
0.0
 40
0.5
100
AcDbArc
 50
359.745727
 51
92.817949
  0
LINE
  5
145C
100
AcDbEntity
  8
VHH-025
100
AcDbLine
 10
17.24936
 20
421.7
 30
0.0
 11
7.390652
 21
421.7
 31
0.0
  0
SPLINE
  5
145D
100
AcDbEntity
  8
VHH-025
100
AcDbSpline
210
0.0
220
0.0
230
-1.0
 70
     8
 71
     3
 72
    11
 73
     7
 74
     5
 42
0.0000001
 43
0.0000001
 44
0.0000000001
 40
0.0
 40
0.0
 40
0.0
 40
0.0
 40
0.8012084873059352
 40
1.355387018408663
 40
1.955784421317553
 40
2.570156969731447
 40
2.570156969731447
 40
2.570156969731447
 40
2.570156969731447
 10
66.61738641601914
 20
424.978118803865
 30
0.0
 10
66.88756641590538
 20
424.9582033021069
 30
0.0
 10
67.34462406105189
 20
424.9245126797838
 30
0.0
 10
67.92058907940107
 20
424.578662864952
 30
0.0
 10
68.26073873869863
 20
424.0618438529636
 30
0.0
 10
68.28353839648254
 20
423.651859850073
 30
0.0
 10
68.29506937305996
 20
423.4445095477458
 30
0.0
 11
66.61738641601914
 21
424.978118803865
 31
0.0
 11
67.40769229193211
 21
424.8463930940415
 31
0.0
 11
67.87979199548863
 21
424.5561591983005
 31
0.0
 11
68.20656011584651
 21
424.0524731483274
 31
0.0
 11
68.29506937305996
 21
423.4445095477458
 31
0.0
  0
SPLINE
  5
145E
100
AcDbEntity
  8
VHH-025
100
AcDbSpline
210
0.0
220
0.0
230
-1.0
 70
     8
 71
     3
 72
    20
 73
    16
 74
     0
 42
0.0000001
 43
0.0000001
 40
0.0
 40
0.0
 40
0.0
 40
0.0
 40
0.411372432094715
 40
0.411372432094715
 40
0.7549641539760199
 40
0.7549641539760199
 40
1.460265566936419
 40
1.460265566936419
 40
1.780008105651267
 40
1.780008105651267
 40
2.128014443002301
 40
2.128014443002301
 40
2.476020780353334
 40
2.476020780353334
 40
2.570156969732271
 40
2.570156969732271
 40
2.570156969732271
 40
2.570156969732271
 10
66.56592764267589
 20
424.2800127985574
 30
0.0
 10
66.70464884373359
 20
424.2697873846682
 30
0.0
 10
66.82684808702652
 20
424.2601437260482
 30
0.0
 10
67.01452605627491
 20
424.2325845736513
 30
0.0
 10
67.08556545278042
 20
424.2165616940019
 30
0.0
 10
67.26223560154903
 20
424.1578439158929
 30
0.0
 10
67.35935147395867
 20
424.094579382825
 30
0.0
 10
67.46600482192843
 20
423.9755918343962
 30
0.0
 10
67.49460551292031
 20
423.9339537645519
 30
0.0
 10
67.53849569351223
 20
423.8489294260579
 30
0.0
 10
67.55099921065085
 20
423.813886601878
 30
0.0
 10
67.57561500224801
 20
423.6890743607
 30
0.0
 10
67.58431868523985
 20
423.6031906175985
 30
0.0
 10
67.59269107252112
 20
423.4677466571975
 30
0.0
 10
67.59438246235731
 20
423.4374127361125
 30
0.0
 10
67.59614927664188
 20
423.4056418385062
 30
0.0
  0
CIRCLE
  5
145F
100
AcDbEntity
  8
VHH-025
100
AcDbCircle
 10
64.570404
 20
413.754525
 30
0.0
 40
2.21318
  0
CIRCLE
  5
1460
100
AcDbEntity
  8
VHH-025
100
AcDbCircle
 10
64.570404
 20
413.754525
 30
0.0
 40
1.51318
  0
LINE
  5
1461
100
AcDbEntity
  8
VHH-025
100
AcDbLine
 10
44.519417
 20
407.843345
 30
0.0
 11
44.562291
 21
421.447496
 31
0.0
  0
SPLINE
  5
1462
100
AcDbEntity
  8
VHH-025
100
AcDbSpline
210
0.0
220
0.0
230
-1.0
 70
     8
 71
     3
 72
    14
 73
    10
 74
     0
 42
0.0000001
 43
0.0000001
 40
0.0
 40
0.0
 40
0.0
 40
0.0
 40
8.543455177382728
 40
32.60806185346405
 40
34.09251365044104
 40
35.82256549595564
 40
37.21403762249804
 40
38.48665207093368
 40
38.6143838058074
 40
38.6143838058074
 40
38.6143838058074
 40
38.6143838058074
 10
122.3851973962409
 20
444.5729801514044
 30
0.0
 10
125.2344838742301
 20
444.5609811172362
 30
0.0
 10
136.10944111149
 20
444.5151840433108
 30
0.0
 10
147.8791695897725
 20
444.4312267889308
 30
0.0
 10
156.5675616173957
 20
444.1590829833203
 30
0.0
 10
158.0190757011423
 20
443.4382751519187
 30
0.0
 10
158.8494811277578
 20
442.1360331845171
 30
0.0
 10
158.8735723757272
 20
441.1915641575578
 30
0.0
 10
158.8832468320597
 20
440.7193440493383
 30
0.0
 10
158.8841095482421
 20
440.6762831537061
 30
0.0
  0
ARC
  5
1463
100
AcDbEntity
  8
VHH-025
100
AcDbCircle
 10
126.676513
 20
-282.949534
 30
0.0
 40
730.516587
100
AcDbArc
 50
87.19827
 51
90.336663
  0
LINE
  5
1464
100
AcDbEntity
  8
VHH-025
100
AcDbLine
 10
148.880831
 20
435.694917
 30
0.0
 11
153.880831
 21
435.694917
 31
0.0
  0
LINE
  5
1465
100
AcDbEntity
  8
VHH-025
100
AcDbLine
 10
148.880831
 20
435.694917
 30
0.0
 11
151.380831
 21
431.36479
 31
0.0
  0
SPLINE
  5
1466
100
AcDbEntity
  8
VHH-025
100
AcDbSpline
210
0.0
220
0.0
230
-1.0
 70
     8
 71
     3
 72
    14
 73
    10
 74
     0
 42
0.0000001
 43
0.0000001
 40
0.0
 40
0.0
 40
0.0
 40
0.0
 40
8.543455177382728
 40
32.60806185346405
 40
34.09251365044104
 40
35.82256549595564
 40
37.21403762249804
 40
38.48665207093368
 40
38.6143838058074
 40
38.6143838058074
 40
38.6143838058074
 40
38.6143838058074
 10
122.3808309842024
 20
444.5729801514044
 30
0.0
 10
119.5315445062151
 20
444.5609811172362
 30
0.0
 10
108.6565872689552
 20
444.5151840433108
 30
0.0
 10
96.88685879067271
 20
444.4312267889308
 30
0.0
 10
88.19846676304951
 20
444.1590829833203
 30
0.0
 10
86.74695267930292
 20
443.4382751519187
 30
0.0
 10
85.91654725268744
 20
442.1360331845171
 30
0.0
 10
85.89245600471803
 20
441.1915641575578
 30
0.0
 10
85.88278154838553
 20
440.7193440493383
 30
0.0
 10
85.88191883220316
 20
440.6762831537061
 30
0.0
  0
CIRCLE
  5
1467
100
AcDbEntity
  8
VHH-025
100
AcDbCircle
 10
151.380831
 20
426.251541
 30
0.0
 40
2.0
  0
LINE
  5
1468
100
AcDbEntity
  8
VHH-025
100
AcDbLine
 10
151.380831
 20
431.36479
 30
0.0
 11
153.880831
 21
435.694917
 31
0.0
  0
SPLINE
  5
1469
100
AcDbEntity
  8
VHH-025
100
AcDbSpline
210
0.0
220
0.0
230
1.0
 70
    11
 71
     3
 72
    42
 73
    38
 74
     0
 42
0.0000001
 43
0.0000001
 40
0.0
 40
0.0
 40
0.0
 40
0.0
 40
0.2020226795177207
 40
0.2020226795177207
 40
0.6060680385531623
 40
0.6060680385531623
 40
1.010113397588603
 40
1.010113397588603
 40
1.414158756624045
 40
1.414158756624045
 40
1.774897046242743
 40
1.774897046242743
 40
2.130089007394168
 40
2.130089007394168
 40
2.471304605574108
 40
2.471304605574108
 40
2.812520203754048
 40
2.812520203754048
 40
3.071352036479815
 40
3.071352036479815
 40
3.330183869205582
 40
3.330183869205582
 40
3.713842095799154
 40
3.713842095799154
 40
4.097500322392726
 40
4.097500322392726
 40
4.481158548986298
 40
4.481158548986298
 40
4.86481677557987
 40
4.86481677557987
 40
5.248475002173442
 40
5.248475002173442
 40
5.632133228767014
 40
5.632133228767014
 40
6.015791455360586
 40
6.015791455360586
 40
6.283185307179586
 40
6.283185307179586
 40
6.283185307179586
 40
6.283185307179586
 10
134.6308309842024
 20
412.7515412051125
 30
0.0
 10
134.6308309842024
 20
412.3265904103545
 30
0.0
 10
134.6848410699312
 20
411.9013417411033
 30
0.0
 10
135.0039341245647
 20
410.654096062337
 30
0.0
 10
135.4294392471056
 20
409.860926107618
 30
0.0
 10
136.6260240439514
 20
408.4790038834662
 30
0.0
 10
137.3984372533032
 20
407.8898772556758
 30
0.0
 10
139.1623480041034
 20
407.003690030795
 30
0.0
 10
140.1550395479225
 20
406.7063473105135
 30
0.0
 10
142.0941472301165
 20
406.4614637977738
 30
0.0
 10
143.0348104886488
 20
406.4794103879957
 30
0.0
 10
144.8349613601385
 20
406.7772000669992
 30
0.0
 10
145.6959107559087
 20
407.0538852357513
 30
0.0
 10
147.2179589936095
 20
407.8154870706057
 30
0.0
 10
147.8849642730856
 20
408.2932424144146
 30
0.0
 10
148.9863568612563
 20
409.4038874728248
 30
0.0
 10
149.4188161424462
 20
410.0380687967962
 30
0.0
 10
149.9272509065231
 20
411.2281355356808
 30
0.0
 10
150.0635856375192
 20
411.7651042954276
 30
0.0
 10
150.1582479010758
 20
412.8515718385588
 30
0.0
 10
150.118057024054
 20
413.400581862621
 30
0.0
 10
149.8025416996788
 20
414.7259645525427
 30
0.0
 10
149.4210789797252
 20
415.485701366967
 30
0.0
 10
148.3401012540762
 20
416.8293372304779
 30
0.0
 10
147.638706212354
 20
417.4131430493925
 30
0.0
 10
146.0217371505314
 20
418.3273077638204
 30
0.0
 10
145.1048755723804
 20
418.6565872070278
 30
0.0
 10
143.186794306137
 20
419.0183942672375
 30
0.0
 10
142.1850367835577
 20
419.0493936915699
 30
0.0
 10
140.2379287779294
 20
418.8106613931477
 30
0.0
 10
139.2928170507802
 20
418.539252533792
 30
0.0
 10
137.5925116698399
 20
417.7317625395244
 30
0.0
 10
136.83822163498
 20
417.1939434962241
 30
0.0
 10
135.6296669794282
 20
415.9259033370144
 30
0.0
 10
135.1772525215528
 20
415.1936092189353
 30
0.0
 10
134.7253661875947
 20
413.8767025127708
 30
0.0
 10
134.6308309842024
 20
413.3139989950759
 30
0.0
 10
134.6308309842024
 20
412.7515412051125
 30
0.0
  0
SPLINE
  5
146A
100
AcDbEntity
  8
VHH-025
100
AcDbSpline
210
0.0
220
0.0
230
1.0
 70
     8
 71
     3
 72
    20
 73
    16
 74
     0
 42
0.0000001
 43
0.0000001
 40
3.141592653589793
 40
3.141592653589793
 40
3.141592653589793
 40
3.141592653589793
 40
3.566852563487359
 40
3.566852563487359
 40
4.097334864786621
 40
4.097334864786621
 40
4.627817166085884
 40
4.627817166085884
 40
5.158299467385146
 40
5.158299467385146
 40
5.688781768684408
 40
5.688781768684408
 40
6.21926406998367
 40
6.21926406998367
 40
6.283185307179586
 40
6.283185307179586
 40
6.283185307179586
 40
6.283185307179586
 10
143.7808309842039
 20
410.9015412051121
 30
0.0
 10
143.7808309842039
 20
410.8079094179329
 30
0.0
 10
143.8038927451907
 20
410.714039874736
 30
0.0
 10
143.9079872246002
 20
410.5155401953506
 30
0.0
 10
144.0030773681883
 20
410.4142549173448
 30
0.0
 10
144.2495992615349
 20
410.2638440317277
 30
0.0
 10
144.4004983897866
 20
410.21566635837
 30
0.0
 10
144.711836546543
 20
410.1928720686592
 30
0.0
 10
144.8713891219649
 20
410.2183587110903
 30
0.0
 10
145.1482894256623
 20
410.3326732638579
 30
0.0
 10
145.2648670935341
 20
410.4208567932846
 30
0.0
 10
145.4257181708853
 20
410.626369604628
 30
0.0
 10
145.4706215274218
 20
410.742668471883
 30
0.0
 10
145.4803102106961
 20
410.8733934097617
 30
0.0
 10
145.4808309842046
 20
410.8874673186765
 30
0.0
 10
145.4808309842046
 20
410.9015412051121
 30
0.0
  0
SPLINE
  5
146B
100
AcDbEntity
  8
VHH-025
100
AcDbSpline
210
0.0
220
0.0
230
-1.0
 70
     8
 71
     3
 72
    20
 73
    16
 74
     0
 42
0.0000001
 43
0.0000001
 40
3.141592653589793
 40
3.141592653589793
 40
3.141592653589793
 40
3.141592653589793
 40
3.566852563487359
 40
3.566852563487359
 40
4.097334864786621
 40
4.097334864786621
 40
4.627817166085884
 40
4.627817166085884
 40
5.158299467385146
 40
5.158299467385146
 40
5.688781768684408
 40
5.688781768684408
 40
6.21926406998367
 40
6.21926406998367
 40
6.283185307179586
 40
6.283185307179586
 40
6.283185307179586
 40
6.283185307179586
 10
145.4808309842046
 20
412.2015412051123
 30
0.0
 10
145.4808309842046
 20
412.2951729922915
 30
0.0
 10
145.457769223216
 20
412.3890425354893
 30
0.0
 10
145.3536747438083
 20
412.5875422148746
 30
0.0
 10
145.2585846002184
 20
412.6888274928806
 30
0.0
 10
145.0120627068718
 20
412.8392383784958
 30
0.0
 10
144.8611635786219
 20
412.8874160518553
 30
0.0
 10
144.5498254218655
 20
412.9102103415662
 30
0.0
 10
144.3902728464418
 20
412.8847236991332
 30
0.0
 10
144.1133725427462
 20
412.7704091463674
 30
0.0
 10
143.9967948748726
 20
412.6822256169398
 30
0.0
 10
143.8359437975232
 20
412.4767128055973
 30
0.0
 10
143.7910404409849
 20
412.3604139383415
 30
0.0
 10
143.7813517577124
 20
412.2296890004626
 30
0.0
 10
143.7808309842039
 20
412.215615091547
 30
0.0
 10
143.7808309842039
 20
412.2015412051123
 30
0.0
  0
SPLINE
  5
146C
100
AcDbEntity
  8
VHH-025
100
AcDbSpline
210
0.0
220
0.0
230
1.0
 70
    11
 71
     3
 72
    42
 73
    38
 74
     0
 42
0.0000001
 43
0.0000001
 40
0.0
 40
0.0
 40
0.0
 40
0.0
 40
0.2020226795172709
 40
0.2020226795172709
 40
0.6060680385518129
 40
0.6060680385518129
 40
1.010113397586354
 40
1.010113397586354
 40
1.414158756620896
 40
1.414158756620896
 40
1.774897046269892
 40
1.774897046269892
 40
2.130089007588556
 40
2.130089007588556
 40
2.471304605639319
 40
2.471304605639319
 40
2.812520203690082
 40
2.812520203690082
 40
3.071352036382359
 40
3.071352036382359
 40
3.330183869074637
 40
3.330183869074637
 40
3.713842095834065
 40
3.713842095834065
 40
4.097500322593494
 40
4.097500322593494
 40
4.481158549352922
 40
4.481158549352922
 40
4.864816776112351
 40
4.864816776112351
 40
5.24847500287178
 40
5.24847500287178
 40
5.632133229631208
 40
5.632133229631208
 40
6.015791456390637
 40
6.015791456390637
 40
6.283185307179586
 40
6.283185307179586
 40
6.283185307179586
 40
6.283185307179586
 10
94.63083098420247
 20
412.7515412051125
 30
0.0
 10
94.6308309842043
 20
412.3265904103554
 30
0.0
 10
94.68484106993129
 20
411.9013417411061
 30
0.0
 10
95.00393412456288
 20
410.6540960623424
 30
0.0
 10
95.42943924710199
 20
409.8609261076253
 30
0.0
 10
96.62602404394419
 20
408.4790038834744
 30
0.0
 10
97.39843725329047
 20
407.889877255684
 30
0.0
 10
99.16234800408711
 20
407.0036900308023
 30
0.0
 10
100.1550395479007
 20
406.706347310519
 30
0.0
 10
102.0941472301692
 20
406.4614637977647
 30
0.0
 10
103.0348104887816
 20
406.4794103879976
 30
0.0
 10
104.834961360757
 20
406.7772000671211
 30
0.0
 10
105.6959107569109
 20
407.0538852360832
 30
0.0
 10
107.2179589945117
 20
407.8154870712187
 30
0.0
 10
107.8849642736549
 20
408.2932424149139
 30
0.0
 10
108.98635686132
 20
409.4038874729612
 30
0.0
 10
109.4188161423408
 20
410.0380687966862
 30
0.0
 10
109.9272509063739
 20
411.2281355352206
 30
0.0
 10
110.0635856374065
 20
411.7651042948891
 30
0.0
 10
110.1582479010812
 20
412.8515718378712
 30
0.0
 10
110.1180570241413
 20
413.4005818618652
 30
0.0
 10
109.8025416999189
 20
414.725964552098
 30
0.0
 10
109.4210789798417
 20
415.485701366877
 30
0.0
 10
108.3401012536651
 20
416.8293372309363
 30
0.0
 10
107.6387062115463
 20
417.4131430500456
 30
0.0
 10
106.0217371488033
 20
418.3273077646036
 30
0.0
 10
105.1048755701267
 20
418.6565872077517
 30
0.0
 10
103.1867943028937
 20
419.0183942675503
 30
0.0
 10
102.1850367798451
 20
419.0493936915409
 30
0.0
 10
100.2379287735348
 20
418.8106613921827
 30
0.0
 10
99.29281704616006
 20
418.5392525322404
 30
0.0
 10
97.59251166517607
 20
417.7317625366659
 30
0.0
 10
96.83822163048354
 20
417.1939434926444
 30
0.0
 10
95.62966697575939
 20
415.925903332025
 30
0.0
 10
95.17725251852608
 20
415.1936092132509
 30
0.0
 10
94.72536618685991
 20
413.8767025084434
 30
0.0
 10
94.63083098420247
 20
413.3139989929086
 30
0.0
 10
94.63083098420247
 20
412.7515412051125
 30
0.0
  0
LINE
  5
146D
100
AcDbEntity
  8
VHH-025
100
AcDbLine
 10
124.425137
 20
415.901023
 30
0.0
 11
123.897022
 21
413.260446
 31
0.0
  0
LINE
  5
146E
100
AcDbEntity
  8
VHH-025
100
AcDbLine
 10
115.130831
 20
407.751541
 30
0.0
 11
115.130831
 21
417.751541
 31
0.0
  0
LINE
  5
146F
100
AcDbEntity
  8
VHH-025
100
AcDbLine
 10
120.971488
 20
413.202091
 30
0.0
 11
121.500126
 21
415.845282
 31
0.0
  0
LINE
  5
1470
100
AcDbEntity
  8
VHH-025
100
AcDbLine
 10
118.225137
 20
415.901023
 30
0.0
 11
117.697022
 21
413.260446
 31
0.0
  0
LINE
  5
1471
100
AcDbEntity
  8
VHH-025
100
AcDbLine
 10
103.880831
 20
413.001541
 30
0.0
 11
103.880831
 21
415.751541
 31
0.0
  0
LINE
  5
1472
100
AcDbEntity
  8
VHH-025
100
AcDbLine
 10
100.880831
 20
415.751541
 30
0.0
 11
100.880831
 21
413.001541
 31
0.0
  0
LINE
  5
1473
100
AcDbEntity
  8
VHH-025
100
AcDbLine
 10
143.730831
 20
415.551541
 30
0.0
 11
140.530831
 21
409.951541
 31
0.0
  0
LINE
  5
1474
100
AcDbEntity
  8
VHH-025
100
AcDbLine
 10
127.171488
 20
413.202091
 30
0.0
 11
127.700126
 21
415.845282
 31
0.0
  0
LINE
  5
1475
100
AcDbEntity
  8
VHH-025
100
AcDbLine
 10
129.630831
 20
407.751541
 30
0.0
 11
129.630831
 21
417.751541
 31
0.0
  0
LINE
  5
1476
100
AcDbEntity
  8
VHH-025
100
AcDbLine
 10
140.280831
 20
415.551541
 30
0.0
 11
140.280831
 21
412.351541
 31
0.0
  0
LINE
  5
1477
100
AcDbEntity
  8
VHH-025
100
AcDbLine
 10
115.880831
 20
407.001541
 30
0.0
 11
128.880831
 21
407.001541
 31
0.0
  0
LINE
  5
1478
100
AcDbEntity
  8
VHH-025
100
AcDbLine
 10
123.43132
 20
409.354619
 30
0.0
 11
126.143376
 21
409.354619
 31
0.0
  0
LINE
  5
1479
100
AcDbEntity
  8
VHH-025
100
AcDbLine
 10
123.877611
 20
412.751541
 30
0.0
 11
127.00024
 21
412.757697
 31
0.0
  0
LINE
  5
147A
100
AcDbEntity
  8
VHH-025
100
AcDbLine
 10
117.23132
 20
409.354619
 30
0.0
 11
119.943376
 21
409.354619
 31
0.0
  0
LINE
  5
147B
100
AcDbEntity
  8
VHH-025
100
AcDbLine
 10
117.506362
 20
412.307147
 30
0.0
 11
116.977724
 21
409.663956
 31
0.0
  0
ARC
  5
147C
100
AcDbEntity
  8
VHH-025
100
AcDbCircle
 10
115.880831
 20
407.751541
 30
0.0
 40
0.75
100
AcDbArc
 50
180.0
 51
270.0
  0
LINE
  5
147D
100
AcDbEntity
  8
VHH-025
100
AcDbLine
 10
123.706362
 20
412.307147
 30
0.0
 11
123.177724
 21
409.663956
 31
0.0
  0
CIRCLE
  5
147E
100
AcDbEntity
  8
VHH-025
100
AcDbCircle
 10
121.513867
 20
409.354619
 30
0.0
 40
0.025
  0
LINE
  5
147F
100
AcDbEntity
  8
VHH-025
100
AcDbLine
 10
117.677611
 20
412.751541
 30
0.0
 11
120.80024
 21
412.757697
 31
0.0
  0
LINE
  5
1480
100
AcDbEntity
  8
VHH-025
100
AcDbLine
 10
120.252713
 20
409.608215
 30
0.0
 11
120.780828
 21
412.248792
 31
0.0
  0
ARC
  5
1481
100
AcDbEntity
  8
VHH-025
100
AcDbCircle
 10
102.380831
 20
409.751541
 30
0.0
 40
0.25
100
AcDbArc
 50
225.0
 51
315.0
  0
LINE
  5
1482
100
AcDbEntity
  8
VHH-025
100
AcDbLine
 10
102.557608
 20
409.574765
 30
0.0
 11
105.557608
 21
412.574765
 31
0.0
  0
ARC
  5
1483
100
AcDbEntity
  8
VHH-025
100
AcDbCircle
 10
105.380831
 20
412.751541
 30
0.0
 40
0.25
100
AcDbArc
 50
315.0
 51
90.0
  0
LINE
  5
1484
100
AcDbEntity
  8
VHH-025
100
AcDbLine
 10
103.880831
 20
413.001541
 30
0.0
 11
105.380831
 21
413.001541
 31
0.0
  0
LINE
  5
1485
100
AcDbEntity
  8
VHH-025
100
AcDbLine
 10
126.452713
 20
409.608215
 30
0.0
 11
126.980828
 21
412.248792
 31
0.0
  0
CIRCLE
  5
1486
100
AcDbEntity
  8
VHH-025
100
AcDbCircle
 10
127.713867
 20
409.354619
 30
0.0
 40
0.025
  0
ARC
  5
1487
100
AcDbEntity
  8
VHH-025
100
AcDbCircle
 10
128.880831
 20
407.751541
 30
0.0
 40
0.75
100
AcDbArc
 50
270.0
 51
0.0
  0
ARC
  5
1488
100
AcDbEntity
  8
VHH-025
100
AcDbCircle
 10
99.380831
 20
412.751541
 30
0.0
 40
0.25
100
AcDbArc
 50
90.0
 51
225.0
  0
LINE
  5
1489
100
AcDbEntity
  8
VHH-025
100
AcDbLine
 10
100.880831
 20
413.001541
 30
0.0
 11
99.380831
 21
413.001541
 31
0.0
  0
LINE
  5
148A
100
AcDbEntity
  8
VHH-025
100
AcDbLine
 10
102.204054
 20
409.574765
 30
0.0
 11
99.204054
 21
412.574765
 31
0.0
  0
LINE
  5
148B
100
AcDbEntity
  8
VHH-025
100
AcDbLine
 10
145.480831
 20
412.201541
 30
0.0
 11
145.480831
 21
410.901541
 31
0.0
  0
LINE
  5
148C
100
AcDbEntity
  8
VHH-025
100
AcDbLine
 10
143.780831
 20
412.201541
 30
0.0
 11
143.780831
 21
410.901541
 31
0.0
  0
LINE
  5
148D
100
AcDbEntity
  8
VHH-025
100
AcDbLine
 10
115.880831
 20
418.501541
 30
0.0
 11
128.880831
 21
418.501541
 31
0.0
  0
ARC
  5
148E
100
AcDbEntity
  8
VHH-025
100
AcDbCircle
 10
115.880831
 20
417.751541
 30
0.0
 40
0.75
100
AcDbArc
 50
90.0
 51
180.0
  0
LINE
  5
148F
100
AcDbEntity
  8
VHH-025
100
AcDbLine
 10
121.246531
 20
416.154619
 30
0.0
 11
118.534474
 21
416.154619
 31
0.0
  0
ARC
  5
1490
100
AcDbEntity
  8
VHH-025
100
AcDbCircle
 10
103.630831
 20
415.751541
 30
0.0
 40
0.25
100
AcDbArc
 50
0.0
 51
90.0
  0
LINE
  5
1491
100
AcDbEntity
  8
VHH-025
100
AcDbLine
 10
103.630831
 20
416.001541
 30
0.0
 11
101.130831
 21
416.001541
 31
0.0
  0
ARC
  5
1492
100
AcDbEntity
  8
VHH-025
100
AcDbCircle
 10
101.130831
 20
415.751541
 30
0.0
 40
0.25
100
AcDbArc
 50
90.0
 51
180.0
  0
LINE
  5
1493
100
AcDbEntity
  8
VHH-025
100
AcDbLine
 10
127.446531
 20
416.154619
 30
0.0
 11
124.734474
 21
416.154619
 31
0.0
  0
ARC
  5
1494
100
AcDbEntity
  8
VHH-025
100
AcDbCircle
 10
128.880831
 20
417.751541
 30
0.0
 40
0.75
100
AcDbArc
 50
0.0
 51
90.0
  0
LWPOLYLINE
  5
1536
100
AcDbEntity
  8
VHH-025
100
AcDbPolyline
 90
        4
 70
     1
 43
0.0
 10
573.392821
 20
344.654426
 10
591.392821
 20
344.654426
 10
591.392821
 20
280.098158
 10
573.392821
 20
280.098158
  0
LWPOLYLINE
  5
1537
100
AcDbEntity
  8
VHH-025
100
AcDbPolyline
 90
       43
 70
     0
 43
0.0
 10
550.003892
 20
271.826999
 10
549.9894
 20
271.870381
 10
549.710062
 20
272.640859
 10
548.778865
 20
275.027589
 10
547.601528
 20
277.9931
 10
546.48266
 20
280.867975
 10
546.026746
 20
282.090852
 10
545.577392
 20
283.30115
 10
545.252666
 20
284.174219
 10
544.657666
 20
285.771815
 10
544.256116
 20
286.849216
 10
543.71606
 20
288.298335
 10
543.237072
 20
289.584564
 10
542.75743
 20
290.874297
 10
542.201524
 20
292.372301
 10
541.784501
 20
293.498977
 10
541.153004
 20
295.211051
 10
540.800251
 20
296.171076
 10
539.810121
 20
298.882786
 10
538.821881
 20
301.619888
 10
537.843269
 20
304.367946
 10
536.87967
 20
307.118811
 10
535.934054
 20
309.871275
 10
535.009198
 20
312.625198
 10
534.110023
 20
315.374624
 10
533.24381
 20
318.106359
 10
532.418201
 20
320.805325
 10
531.638978
 20
323.461587
 10
531.370103
 20
324.408298
 10
530.909761
 20
326.072479
 10
530.610415
 20
327.188517
 10
530.233752
 20
328.637923
 10
529.916609
 20
329.904505
 10
529.615693
 20
331.153498
 10
529.293066
 20
332.55529
 10
529.062156
 20
333.607767
 10
528.745907
 20
335.134908
 10
528.580048
 20
335.986185
 10
528.175009
 20
338.277695
 10
527.851318
 20
340.477746
 10
527.61318
 20
342.585155
 10
527.465867
 20
344.596084
 10
527.4288
 20
345.539293
  0
LWPOLYLINE
  5
1538
100
AcDbEntity
  8
VHH-025
100
AcDbPolyline
 90
       43
 70
     0
 43
0.0
 10
623.891505
 20
271.826999
 10
623.910125
 20
271.870381
 10
624.268954
 20
272.640859
 10
625.464346
 20
275.027589
 10
626.973719
 20
277.9931
 10
628.404386
 20
280.867975
 10
628.984786
 20
282.090852
 10
629.554265
 20
283.30115
 10
629.964304
 20
284.174219
 10
630.712644
 20
285.771815
 10
631.215667
 20
286.849216
 10
631.889854
 20
288.298335
 10
632.485719
 20
289.584564
 10
633.080576
 20
290.874297
 10
633.767893
 20
292.372301
 10
634.282095
 20
293.498977
 10
635.058611
 20
295.211051
 10
635.491312
 20
296.171076
 10
636.702076
 20
298.882786
 10
637.90542
 20
301.619888
 10
639.092463
 20
304.367946
 10
640.257205
 20
307.118811
 10
641.396549
 20
309.871275
 10
642.507589
 20
312.625198
 10
643.584828
 20
315.374624
 10
644.619945
 20
318.106359
 10
645.604221
 20
320.805325
 10
646.531165
 20
323.461587
 10
646.850559
 20
324.408298
 10
647.396856
 20
326.072479
 10
647.751731
 20
327.188517
 10
648.197853
 20
328.637923
 10
648.573118
 20
329.904505
 10
648.928873
 20
331.153498
 10
649.309954
 20
332.55529
 10
649.582475
 20
333.607767
 10
649.955401
 20
335.134908
 10
650.150834
 20
335.986185
 10
650.627622
 20
338.277695
 10
651.008119
 20
340.477746
 10
651.287679
 20
342.585155
 10
651.460401
 20
344.596084
 10
651.50382
 20
345.539293
  0
LWPOLYLINE
  5
1539
100
AcDbEntity
  8
VHH-025
100
AcDbPolyline
 90
       33
 70
     0
 43
0.0
 10
614.842486
 20
271.826999
 10
614.857007
 20
271.870375
 10
615.136936
 20
272.64084
 10
616.070042
 20
275.027528
 10
617.249642
 20
277.993
 10
618.370378
 20
280.867862
 10
618.826852
 20
282.090737
 10
619.276554
 20
283.301025
 10
620.196425
 20
285.771671
 10
621.137496
 20
288.298176
 10
622.094974
 20
290.874128
 10
623.066189
 20
293.498802
 10
624.048213
 20
296.170897
 10
625.035659
 20
298.882606
 10
626.020822
 20
301.619711
 10
626.996028
 20
304.367774
 10
627.955952
 20
307.118646
 10
628.897677
 20
309.871118
 10
629.818468
 20
312.625052
 10
630.713461
 20
315.37449
 10
631.575439
 20
318.106238
 10
632.396831
 20
320.805217
 10
633.171914
 20
323.461493
 10
633.897118
 20
326.072399
 10
634.569288
 20
328.637856
 10
635.183734
 20
331.153445
 10
635.733949
 20
333.607726
 10
636.213093
 20
335.986155
 10
636.615586
 20
338.277675
 10
636.937201
 20
340.477734
 10
637.173783
 20
342.585149
 10
637.320116
 20
344.596083
 10
637.356935
 20
345.539362
  0
LWPOLYLINE
  5
153A
100
AcDbEntity
  8
VHH-025
100
AcDbPolyline
 90
       12
 70
     0
 43
0.0
 10
661.381649
 20
345.522402
 10
661.12889
 20
341.387842
 10
660.55826
 20
336.809171
 10
658.543832
 20
326.610015
 10
654.309004
 20
311.784507
 10
648.866174
 20
297.275906
 10
642.32217
 20
283.606734
 10
641.47029
 20
282.07462
 10
640.237278
 20
279.986616
 10
636.766277
 20
274.583961
 10
635.428353
 20
272.49298
 10
635.03731
 20
271.8309
  0
LWPOLYLINE
  5
153B
100
AcDbEntity
  8
VHH-025
100
AcDbPolyline
 90
       14
 70
     0
 43
0.0
 10
339.390648
 20
266.914697
 42
-0.236789
 10
339.526101
 20
267.184681
 42
0.124736
 10
340.45498
 20
268.329037
 42
0.224952
 10
340.308671
 20
284.786213
 42
-0.113339
 10
337.30342
 20
297.873746
 10
337.30342
 20
301.74894
 42
-0.301029
 10
340.350823
 20
306.351914
 42
-0.203332
 10
364.430472
 20
306.351914
 42
-0.301029
 10
367.477875
 20
301.74894
 10
367.477875
 20
297.873746
 42
-0.113339
 10
364.472624
 20
284.786213
 42
0.224952
 10
364.326315
 20
268.329037
 42
0.124736
 10
365.255194
 20
267.184681
 42
-0.236789
 10
365.390648
 20
266.914697
 42
-0.293728
  0
LWPOLYLINE
  5
153C
100
AcDbEntity
  8
VHH-025
100
AcDbPolyline
 90
       12
 70
     0
 43
0.0
 10
175.032946
 20
271.83091
 10
175.655434
 20
272.863965
 10
177.678394
 20
275.990193
 10
180.034685
 20
279.666693
 10
181.566407
 20
282.252495
 10
185.590639
 20
290.006151
 10
189.324618
 20
298.381044
 10
195.620434
 20
315.915364
 10
197.941442
 20
324.18122
 10
199.71932
 20
332.030641
 10
200.886972
 20
339.224183
 10
201.377303
 20
345.522402
  0
LWPOLYLINE
  5
153D
100
AcDbEntity
  8
VHH-025
100
AcDbPolyline
 90
       12
 70
     0
 43
0.0
 10
529.748351
 20
271.83091
 10
529.125863
 20
272.863965
 10
527.102903
 20
275.990193
 10
524.746612
 20
279.666693
 10
523.21489
 20
282.252495
 10
519.190658
 20
290.006151
 10
515.456679
 20
298.381044
 10
509.160863
 20
315.915364
 10
506.839855
 20
324.18122
 10
505.061977
 20
332.030641
 10
503.894325
 20
339.224183
 10
503.403994
 20
345.522402
  0
LWPOLYLINE
  5
153E
100
AcDbEntity
  8
VHH-025
100
AcDbPolyline
 90
       33
 70
     0
 43
0.0
 10
540.941613
 20
271.826999
 10
540.92302
 20
271.870375
 10
540.564664
 20
272.64084
 10
539.370798
 20
275.027528
 10
537.863225
 20
277.993
 10
536.434024
 20
280.867862
 10
535.854063
 20
282.090737
 10
535.284864
 20
283.301025
 10
534.126614
 20
285.771671
 10
532.948999
 20
288.298176
 10
531.757385
 20
290.874128
 10
530.554532
 20
293.498802
 10
529.343578
 20
296.170897
 10
528.130717
 20
298.882606
 10
526.924966
 20
301.619711
 10
525.735257
 20
304.367774
 10
524.567637
 20
307.118646
 10
523.425244
 20
309.871118
 10
522.311019
 20
312.625052
 10
521.230502
 20
315.37449
 10
520.192064
 20
318.106238
 10
519.20448
 20
320.805217
 10
518.274289
 20
323.461493
 10
517.405451
 20
326.072399
 10
516.601442
 20
328.637856
 10
515.867587
 20
331.153445
 10
515.211379
 20
333.607726
 10
514.640694
 20
335.986155
 10
514.161907
 20
338.277675
 10
513.779781
 20
340.477734
 10
513.499
 20
342.585149
 10
513.325509
 20
344.596083
 10
513.281891
 20
345.539362
  0
LWPOLYLINE
  5
153F
100
AcDbEntity
  8
VHH-025
100
AcDbPolyline
 90
        3
 70
     0
 43
0.0
 10
237.390648
 20
421.7
 10
237.390648
 20
57.5
 10
466.932165
 20
57.5
  0
LINE
  5
1540
100
AcDbEntity
  8
VHH-025
100
AcDbLine
 10
246.190648
 20
86.71489
 30
0.0
 11
246.190648
 21
339.249153
 31
0.0
  0
LINE
  5
1541
100
AcDbEntity
  8
VHH-025
100
AcDbLine
 10
252.077373
 20
357.708899
 30
0.0
 11
251.950257
 21
62.425449
 31
0.0
  0
LINE
  5
1542
100
AcDbEntity
  8
VHH-025
100
AcDbLine
 10
219.288476
 20
347.9
 30
0.0
 11
219.288476
 21
57.5
 31
0.0
  0
LINE
  5
1543
100
AcDbEntity
  8
VHH-025
100
AcDbLine
 10
458.588472
 20
86.71489
 30
0.0
 11
458.588472
 21
339.249153
 31
0.0
  0
LINE
  5
1544
100
AcDbEntity
  8
VHH-025
100
AcDbLine
 10
452.701747
 20
357.708899
 30
0.0
 11
452.828863
 21
62.425449
 31
0.0
  0
LINE
  5
1545
100
AcDbEntity
  8
VHH-025
100
AcDbLine
 10
467.390647
 20
421.7
 30
0.0
 11
467.390647
 21
57.5
 31
0.0
  0
LINE
  5
1546
100
AcDbEntity
  8
VHH-025
100
AcDbLine
 10
467.390647
 20
57.5
 30
0.0
 11
467.390647
 21
421.7
 31
0.0
  0
LINE
  5
1547
100
AcDbEntity
  8
VHH-025
100
AcDbLine
 10
697.390645
 20
421.7
 30
0.0
 11
697.390645
 21
57.5
 31
0.0
  0
LINE
  5
1548
100
AcDbEntity
  8
VHH-025
100
AcDbLine
 10
679.29011
 20
57.5
 30
0.0
 11
679.29011
 21
347.9
 31
0.0
  0
LINE
  5
1549
100
AcDbEntity
  8
VHH-025
100
AcDbLine
 10
485.492821
 20
347.9
 30
0.0
 11
485.492821
 21
57.5
 31
0.0
  0
LINE
  5
154A
100
AcDbEntity
  8
VHH-025
100
AcDbLine
 10
504.304028
 20
122.628186
 30
0.0
 11
524.605848
 21
178.406978
 31
0.0
  0
LWPOLYLINE
  5
154B
100
AcDbEntity
  8
VHH-025
100
AcDbPolyline
 90
        7
 70
     0
 43
0.0
 10
466.166455
 20
57.474042
 42
-0.057149
 10
466.392821
 20
57.5
 10
698.390645
 20
57.5
 42
-0.414214
 10
699.390645
 20
56.5
 10
699.390645
 20
21.556182
 42
-0.414214
 10
698.390645
 20
20.556182
 10
467.226042
 20
20.556182
  0
LINE
  5
154C
100
AcDbEntity
  8
VHH-025
100
AcDbLine
 10
467.231261
 20
19.9
 30
0.0
 11
695.390645
 21
19.9
 31
0.0
  0
LWPOLYLINE
  5
154D
100
AcDbEntity
  8
VHH-025
100
AcDbPolyline
 90
       16
 70
     0
 43
0.0
 10
510.61321
 20
61.863748
 10
518.965023
 20
63.008508
 10
527.580652
 20
64.010133
 10
539.989583
 20
65.160741
 10
552.696494
 20
66.011056
 10
567.555997
 20
66.613017
 10
582.568886
 20
66.811289
 10
590.958563
 20
66.745237
 10
599.32129
 20
66.552863
 10
607.630523
 20
66.234829
 10
615.859714
 20
65.791797
 10
624.341969
 20
65.196341
 10
632.688265
 20
64.466645
 10
640.865914
 20
63.605254
 10
648.842229
 20
62.614713
 10
654.170257
 20
61.863748
  0
LINE
  5
154E
100
AcDbEntity
  8
VHH-025
100
AcDbLine
 10
510.61321
 20
60.2
 30
0.0
 11
654.170257
 21
60.2
 31
0.0
  0
LINE
  5
154F
100
AcDbEntity
  8
VHH-025
100
AcDbLine
 10
517.412731
 20
69.947381
 30
0.0
 11
647.370736
 21
69.947381
 31
0.0
  0
ARC
  5
1550
100
AcDbEntity
  8
VHH-025
100
AcDbCircle
 10
541.891733
 20
108.947381
 30
0.0
 40
40.0
100
AcDbArc
 50
160.0
 51
243.174889
  0
SPLINE
  5
1551
100
AcDbEntity
  8
VHH-025
100
AcDbSpline
210
0.0
220
0.0
230
1.0
 70
     8
 71
     3
 72
    14
 73
    10
 74
     8
 42
0.0000001
 43
0.0000001
 44
0.0000000001
 40
0.0
 40
0.0
 40
0.0
 40
0.0
 40
11.05092888180737
 40
19.11701555335862
 40
21.83833101109257
 40
23.82063570679619
 40
25.41815743345521
 40
26.54338131689955
 40
27.54198087682
 40
27.54198087682
 40
27.54198087682
 40
27.54198087682
 10
463.56085541396
 20
60.01097835698238
 30
0.0
 10
463.3781252679434
 20
63.70068459104609
 30
0.0
 10
463.062020162135
 20
70.08351197309909
 30
0.0
 10
461.9170624713443
 20
77.21914190561459
 30
0.0
 10
461.2805631787941
 20
81.50890745192937
 30
0.0
 10
460.0785545883191
 20
83.26955388922405
 30
0.0
 10
459.0344019198012
 20
84.46387087646479
 30
0.0
 10
458.6712908889966
 20
85.67785837911925
 30
0.0
 10
458.6149587335382
 20
86.38323114479407
 30
0.0
 10
458.5884719434871
 20
86.71489003837269
 30
0.0
 11
463.56085541396
 21
60.01097835698238
 31
0.0
 11
462.783370443025
 21
71.03452344332982
 31
0.0
 11
461.6524293220683
 21
79.02093229674483
 31
0.0
 11
461.0218641389657
 21
81.66818471583155
 31
0.0
 11
459.9709479050035
 21
83.34899017030966
 31
0.0
 11
459.0461408469856
 21
84.65160583603301
 31
0.0
 11
458.7012930935672
 21
85.72268417809572
 31
0.0
 11
458.5884719434871
 21
86.71489003837269
 31
0.0
  0
SPLINE
  5
1552
100
AcDbEntity
  8
VHH-025
100
AcDbSpline
210
0.0
220
0.0
230
-1.0
 70
     8
 71
     3
 72
    14
 73
    10
 74
     8
 42
0.0000001
 43
0.0000001
 44
0.0000000001
 40
0.0
 40
0.0
 40
0.0
 40
0.0
 40
6.706404132125335
 40
15.26849006360837
 40
19.65418868062708
 40
21.78101070170201
 40
23.77997609944412
 40
25.24609195193228
 40
26.08908231895131
 40
26.08908231895131
 40
26.08908231895131
 40
26.08908231895131
 10
456.6752637340361
 20
59.99972846093806
 30
0.0
 10
456.6853856782286
 20
62.23526214110857
 30
0.0
 10
456.7084303384192
 20
67.32490826294584
 30
0.0
 10
456.7935239376573
 20
73.87443901662023
 30
0.0
 10
456.9704174195307
 20
78.89999970907273
 30
0.0
 10
457.2000306445854
 20
81.72474652643529
 30
0.0
 10
457.3601680242176
 20
83.59065053650786
 30
0.0
 10
457.7851907443967
 20
84.96789494346707
 30
0.0
 10
458.0285525261153
 20
85.69772094588882
 30
0.0
 10
458.1173971344561
 20
85.96416009210225
 30
0.0
 11
456.6752637340361
 21
59.99972846093806
 31
0.0
 11
456.7139370631394
 21
66.70602108481034
 31
0.0
 11
456.8535322536919
 21
75.2669689692957
 31
0.0
 11
457.0419416305741
 21
79.64861868898151
 31
0.0
 11
457.2053003298971
 21
81.76915773476322
 31
0.0
 11
457.4561730262904
 21
83.75231823043032
 31
0.0
 11
457.8529359896093
 21
85.16372704571223
 31
0.0
 11
458.1173971344561
 21
85.96416009210225
 31
0.0
  0
CIRCLE
  5
1553
100
AcDbEntity
  8
VHH-025
100
AcDbCircle
 10
277.390648
 20
77.5
 30
0.0
 40
11.0
  0
CIRCLE
  5
1554
100
AcDbEntity
  8
VHH-025
100
AcDbCircle
 10
277.390648
 20
77.5
 30
0.0
 40
10.0
  0
ARC
  5
1555
100
AcDbEntity
  8
VHH-025
100
AcDbCircle
 10
182.294118
 20
70.574691
 30
0.0
 40
3.0
100
AcDbArc
 50
116.825111
 51
160.0
  0
SPLINE
  5
1556
100
AcDbEntity
  8
VHH-025
100
AcDbSpline
210
0.0
220
0.0
230
1.0
 70
     8
 71
     3
 72
    14
 73
    10
 74
     8
 42
0.0000001
 43
0.0000001
 44
0.0000000001
 40
0.0
 40
0.0
 40
0.0
 40
0.0
 40
6.706404132125346
 40
15.26849006360835
 40
19.65418868062714
 40
21.78101070170221
 40
23.77997609944386
 40
25.24609195193251
 40
26.08908231895155
 40
26.08908231895155
 40
26.08908231895155
 40
26.08908231895155
 10
248.1038558823783
 20
59.99972846093806
 30
0.0
 10
248.093733938185
 20
62.23526214110858
 30
0.0
 10
248.0706892779922
 20
67.32490826294588
 30
0.0
 10
247.9855956787573
 20
73.8744390166201
 30
0.0
 10
247.8087021968842
 20
78.89999970907303
 30
0.0
 10
247.5790889718232
 20
81.72474652643478
 30
0.0
 10
247.4189515921987
 20
83.59065053650857
 30
0.0
 10
246.9939288720155
 20
84.9678949434668
 30
0.0
 10
246.7505670902971
 20
85.69772094588881
 30
0.0
 10
246.6617224819565
 20
85.96416009210225
 30
0.0
 11
248.1038558823783
 21
59.99972846093806
 31
0.0
 11
248.0651825532731
 21
66.70602108481034
 31
0.0
 11
247.9255873627225
 21
75.2669689692957
 31
0.0
 11
247.7371779858385
 21
79.64861868898151
 31
0.0
 11
247.5738192865137
 21
81.76915773476322
 31
0.0
 11
247.322946590124
 21
83.75231823043032
 31
0.0
 11
246.9261836268033
 21
85.16372704571223
 31
0.0
 11
246.6617224819565
 21
85.96416009210225
 31
0.0
  0
SPLINE
  5
1557
100
AcDbEntity
  8
VHH-025
100
AcDbSpline
210
0.0
220
0.0
230
-1.0
 70
     8
 71
     3
 72
    14
 73
    10
 74
     8
 42
0.0000001
 43
0.0000001
 44
0.0000000001
 40
0.0
 40
0.0
 40
0.0
 40
0.0
 40
11.05092888180737
 40
19.11701555335862
 40
21.83833101109257
 40
23.82063570679619
 40
25.41815743345521
 40
26.54338131690011
 40
27.54198087682055
 40
27.54198087682055
 40
27.54198087682055
 40
27.54198087682055
 10
241.2182642024526
 20
60.01097835698238
 30
0.0
 10
241.4009943484691
 20
63.7006845910461
 30
0.0
 10
241.7170994542775
 20
70.0835119730991
 30
0.0
 10
242.8620571450685
 20
77.21914190561455
 30
0.0
 10
243.4985564376183
 20
81.50890745192942
 30
0.0
 10
244.7005650280938
 20
83.26955388922394
 30
0.0
 10
245.7447176966108
 20
84.46387087646519
 30
0.0
 10
246.1078287274181
 20
85.67785837911895
 30
0.0
 10
246.1641608828763
 20
86.38323114479403
 30
0.0
 10
246.1906476729272
 20
86.71489003837269
 30
0.0
 11
241.2182642024526
 21
60.01097835698238
 31
0.0
 11
241.9957491733875
 21
71.03452344332982
 31
0.0
 11
243.1266902943443
 21
79.02093229674483
 31
0.0
 11
243.7572554774469
 21
81.66818471583155
 31
0.0
 11
244.8081717114091
 21
83.34899017030966
 31
0.0
 11
245.732978769427
 21
84.65160583603301
 31
0.0
 11
246.0778265228473
 21
85.72268417809572
 31
0.0
 11
246.1906476729272
 21
86.71489003837269
 31
0.0
  0
ARC
  5
1558
100
AcDbEntity
  8
VHH-025
100
AcDbCircle
 10
162.889564
 20
108.947381
 30
0.0
 40
40.0
100
AcDbArc
 50
296.825111
 51
20.0
  0
LINE
  5
1559
100
AcDbEntity
  8
VHH-025
100
AcDbLine
 10
238.539382
 20
55.140004
 30
0.0
 11
352.38956
 21
55.140004
 31
0.0
  0
LINE
  5
155A
100
AcDbEntity
  8
VHH-025
100
AcDbLine
 10
237.38956
 20
0.0
 30
0.0
 11
352.38956
 21
0.0
 31
0.0
  0
LINE
  5
155B
100
AcDbEntity
  8
VHH-025
100
AcDbLine
 10
242.435013
 20
59.500177
 30
0.0
 11
462.344107
 21
59.500177
 31
0.0
  0
INSERT
  5
155C
100
AcDbEntity
  8
VHH-050
100
AcDbBlockReference
  2
A$C605007EB
 10
339.86392
 20
7.429986
 30
0.0
  0
LWPOLYLINE
  5
155D
100
AcDbEntity
  8
VHH-025
100
AcDbPolyline
 90
        6
 70
     0
 43
0.0
 10
197.389564
 20
62.025752
 10
197.335106
 20
61.912261
 10
197.074718
 20
61.793769
 10
196.365492
 20
61.71728
 10
194.792629
 20
61.793945
 10
194.168087
 20
61.863748
  0
ARC
  5
155E
100
AcDbEntity
  8
VHH-025
100
AcDbCircle
 10
122.389564
 20
-218.756538
 30
0.0
 40
296.0
100
AcDbArc
 50
75.472334
 51
77.186906
  0
LINE
  5
155F
100
AcDbEntity
  8
VHH-025
100
AcDbLine
 10
197.389564
 20
62.025752
 30
0.0
 11
197.389564
 21
66.811317
 31
0.0
  0
LINE
  5
1560
100
AcDbEntity
  8
VHH-025
100
AcDbLine
 10
193.589564
 20
57.5
 30
0.0
 11
193.589564
 21
60.2
 31
0.0
  0
LINE
  5
1561
100
AcDbEntity
  8
VHH-025
100
AcDbLine
 10
197.389564
 20
60.2
 30
0.0
 11
197.389564
 21
62.025752
 31
0.0
  0
LINE
  5
1562
100
AcDbEntity
  8
VHH-025
100
AcDbLine
 10
197.389564
 20
60.2
 30
0.0
 11
194.168087
 21
60.2
 31
0.0
  0
ARC
  5
1563
100
AcDbEntity
  8
VHH-025
100
AcDbCircle
 10
196.389564
 20
66.811317
 30
0.0
 40
1.0
100
AcDbArc
 50
360.0
 51
75.472334
  0
ARC
  5
1564
100
AcDbEntity
  8
VHH-025
100
AcDbCircle
 10
187.368566
 20
66.947381
 30
0.0
 40
3.0
100
AcDbArc
 50
77.186906
 51
90.0
  0
LINE
  5
1565
100
AcDbEntity
  8
VHH-025
100
AcDbLine
 10
179.218262
 20
70.89526
 30
0.0
 11
179.47504
 21
71.600752
 31
0.0
  0
ARC
  5
1566
100
AcDbEntity
  8
VHH-025
100
AcDbCircle
 10
173.580106
 20
72.947381
 30
0.0
 40
6.0
100
AcDbArc
 50
330.0
 51
340.0
  0
SPLINE
  5
1567
100
AcDbEntity
  8
VHH-025
100
AcDbSpline
210
0.0
220
0.0
230
1.0
 70
     8
 71
     3
 72
    10
 73
     6
 74
     4
 42
0.0000001
 43
0.0000001
 44
0.0000000001
 40
0.0
 40
0.0
 40
0.0
 40
0.0
 40
0.3816052292274963
 40
0.5746288017449359
 40
1.481778013365437
 40
1.481778013365437
 40
1.481778013365437
 40
1.481778013365437
 10
241.2182642024526
 20
60.01097835698238
 30
0.0
 10
241.2413713170121
 20
59.87205988409771
 30
0.0
 10
241.2761664731947
 20
59.66287366362703
 30
0.0
 10
241.7675516309906
 20
59.48002301032172
 30
0.0
 10
242.133373795021
 20
59.49106921559867
 30
0.0
 10
242.4350130397633
 20
59.50017738165479
 30
0.0
 11
241.2182642024526
 21
60.01097835698238
 31
0.0
 11
241.3562791990607
 21
59.6552053792493
 31
0.0
 11
241.5307645846624
 21
59.57266478463771
 31
0.0
 11
242.4350130397633
 21
59.50017738165479
 31
0.0
  0
LINE
  5
1568
100
AcDbEntity
  8
VHH-025
100
AcDbLine
 10
238.108639
 20
0.0
 30
0.0
 11
238.539382
 21
55.140004
 31
0.0
  0
LINE
  5
1569
100
AcDbEntity
  8
VHH-025
100
AcDbLine
 10
237.38956
 20
0.0
 30
0.0
 11
237.83907
 21
56.508727
 31
0.0
  0
ARC
  5
156A
100
AcDbEntity
  8
VHH-025
100
AcDbCircle
 10
241.554287
 20
59.062386
 30
0.0
 40
0.641074
100
AcDbArc
 50
354.449296
 51
43.070919
  0
LINE
  5
156B
100
AcDbEntity
  8
VHH-025
100
AcDbLine
 10
242.192355
 20
59.000377
 30
0.0
 11
242.192355
 21
57.5
 31
0.0
  0
ARC
  5
156C
100
AcDbEntity
  8
VHH-025
100
AcDbCircle
 10
238.839032
 20
56.5
 30
0.0
 40
1.0
100
AcDbArc
 50
90.000004
 51
179.500001
  0
LINE
  5
156D
100
AcDbEntity
  8
VHH-025
100
AcDbLine
 10
467.38956
 20
0.0
 30
0.0
 11
352.38956
 21
0.0
 31
0.0
  0
LINE
  5
156E
100
AcDbEntity
  8
VHH-025
100
AcDbLine
 10
466.239738
 20
55.140004
 30
0.0
 11
352.38956
 21
55.140004
 31
0.0
  0
INSERT
  5
156F
100
AcDbEntity
  8
VHH-050
100
AcDbBlockReference
  2
A$C7A7B4A19
 10
389.084609
 20
21.322331
 30
0.0
  0
SPLINE
  5
1570
100
AcDbEntity
  8
VHH-025
100
AcDbSpline
210
0.0
220
0.0
230
1.0
 70
     8
 71
     3
 72
    10
 73
     6
 74
     4
 42
0.0000001
 43
0.0000001
 44
0.0000000001
 40
0.0
 40
0.0
 40
0.0
 40
0.0
 40
0.3816052292274963
 40
0.5746288017465801
 40
1.481778013365268
 40
1.481778013365268
 40
1.481778013365268
 40
1.481778013365268
 10
463.56085541396
 20
60.01097835698238
 30
0.0
 10
463.5377482994006
 20
59.87205988409761
 30
0.0
 10
463.5029531432179
 20
59.66287366362616
 30
0.0
 10
463.0115679854205
 20
59.48002301032335
 30
0.0
 10
462.6457458213906
 20
59.49106921559939
 30
0.0
 10
462.3441065766493
 20
59.50017738165479
 30
0.0
 11
463.56085541396
 21
60.01097835698238
 31
0.0
 11
463.4228404173519
 21
59.6552053792493
 31
0.0
 11
463.2483550317484
 21
59.57266478463771
 31
0.0
 11
462.3441065766493
 21
59.50017738165479
 31
0.0
  0
LINE
  5
1571
100
AcDbEntity
  8
VHH-025
100
AcDbLine
 10
467.38956
 20
0.0
 30
0.0
 11
466.94005
 21
56.508727
 31
0.0
  0
LINE
  5
1572
100
AcDbEntity
  8
VHH-025
100
AcDbLine
 10
466.670481
 20
0.0
 30
0.0
 11
466.239738
 21
55.140004
 31
0.0
  0
ARC
  5
1573
100
AcDbEntity
  8
VHH-025
100
AcDbCircle
 10
463.224833
 20
59.062386
 30
0.0
 40
0.641074
100
AcDbArc
 50
136.929081
 51
185.550704
  0
LINE
  5
1574
100
AcDbEntity
  8
VHH-025
100
AcDbLine
 10
462.586765
 20
59.000377
 30
0.0
 11
462.586765
 21
57.5
 31
0.0
  0
ARC
  5
1575
100
AcDbEntity
  8
VHH-025
100
AcDbCircle
 10
465.940088
 20
56.5
 30
0.0
 40
1.0
100
AcDbArc
 50
0.499999
 51
89.999996
  0
LWPOLYLINE
  5
1576
100
AcDbEntity
  8
VHH-025
100
AcDbPolyline
 90
        6
 70
     0
 43
0.0
 10
507.391733
 20
62.025752
 10
507.446191
 20
61.912261
 10
507.706579
 20
61.793769
 10
508.415805
 20
61.71728
 10
509.988669
 20
61.793945
 10
510.61321
 20
61.863748
  0
ARC
  5
1577
100
AcDbEntity
  8
VHH-025
100
AcDbCircle
 10
517.412731
 20
66.947381
 30
0.0
 40
3.0
100
AcDbArc
 50
90.0
 51
102.813094
  0
ARC
  5
1578
100
AcDbEntity
  8
VHH-025
100
AcDbCircle
 10
508.391733
 20
66.811317
 30
0.0
 40
1.0
100
AcDbArc
 50
104.527666
 51
180.0
  0
LINE
  5
1579
100
AcDbEntity
  8
VHH-025
100
AcDbLine
 10
507.391733
 20
60.2
 30
0.0
 11
510.61321
 21
60.2
 31
0.0
  0
LINE
  5
157A
100
AcDbEntity
  8
VHH-025
100
AcDbLine
 10
507.391733
 20
60.2
 30
0.0
 11
507.391733
 21
62.025752
 31
0.0
  0
LINE
  5
157B
100
AcDbEntity
  8
VHH-025
100
AcDbLine
 10
511.191733
 20
57.5
 30
0.0
 11
511.191733
 21
60.2
 31
0.0
  0
LINE
  5
157C
100
AcDbEntity
  8
VHH-025
100
AcDbLine
 10
507.391733
 20
62.025752
 30
0.0
 11
507.391733
 21
66.811317
 31
0.0
  0
ARC
  5
157D
100
AcDbEntity
  8
VHH-025
100
AcDbCircle
 10
582.391733
 20
-218.756538
 30
0.0
 40
296.0
100
AcDbArc
 50
102.813094
 51
104.527666
  0
LWPOLYLINE
  5
157E
100
AcDbEntity
  8
VHH-025
100
AcDbPolyline
 90
        9
 70
   128
 43
0.0
 10
361.260648
 20
258.800001
 42
0.0597
 10
360.695037
 20
263.520261
 42
0.073203
 10
359.128563
 20
267.389755
 42
0.106775
 10
356.17793
 20
270.598295
 42
0.154846
 10
352.390648
 20
271.800001
 42
0.154846
 10
348.603365
 20
270.598295
 42
0.106775
 10
345.652733
 20
267.389755
 42
0.073203
 10
344.086258
 20
263.520261
 42
0.0597
 10
343.520648
 20
258.800001
 42
0.0597
  0
LWPOLYLINE
  5
157F
100
AcDbEntity
  8
VHH-025
100
AcDbPolyline
 90
        3
 70
   128
 43
0.0
 10
348.239931
 20
265.871069
 42
0.073203
 10
347.001328
 20
262.811481
 42
0.0597
 10
346.520648
 20
258.800001
 42
0.0597
  0
LINE
  5
1580
100
AcDbEntity
  8
VHH-025
100
AcDbLine
 10
344.390648
 20
208.000001
 30
0.0
 11
360.390648
 21
208.000001
 31
0.0
  0
LINE
  5
1581
100
AcDbEntity
  8
VHH-025
100
AcDbLine
 10
344.390649
 20
206.000001
 30
0.0
 11
360.390649
 21
206.000001
 31
0.0
  0
LINE
  5
1582
100
AcDbEntity
  8
VHH-025
100
AcDbLine
 10
345.390649
 20
202.500001
 30
0.0
 11
359.390649
 21
202.500001
 31
0.0
  0
LINE
  5
1583
100
AcDbEntity
  8
VHH-025
100
AcDbLine
 10
368.263058
 20
222.500001
 30
0.0
 11
336.518239
 21
222.500001
 31
0.0
  0
LINE
  5
1584
100
AcDbEntity
  8
VHH-025
100
AcDbLine
 10
337.474598
 20
258.800001
 30
0.0
 11
367.306697
 21
258.800001
 31
0.0
  0
LINE
  5
1585
100
AcDbEntity
  8
VHH-025
100
AcDbLine
 10
336.390648
 20
248.500001
 30
0.0
 11
368.390648
 21
248.500001
 31
0.0
  0
LINE
  5
1586
100
AcDbEntity
  8
VHH-025
100
AcDbLine
 10
200.477269
 20
122.628186
 30
0.0
 11
180.175449
 21
178.406978
 31
0.0
  0
LWPOLYLINE
  5
1587
100
AcDbEntity
  8
VHH-025
100
AcDbPolyline
 90
        3
 70
     0
 43
0.0
 10
174.916906
 20
271.242378
 10
174.929767
 20
271.545546
 10
175.032965
 20
271.8309
  0
LINE
  5
1588
100
AcDbEntity
  8
VHH-025
100
AcDbLine
 10
174.916906
 20
271.242378
 30
0.0
 11
175.526407
 21
265.719382
 31
0.0
  0
ARC
  5
1589
100
AcDbEntity
  8
VHH-025
100
AcDbCircle
 10
173.538476
 20
265.5
 30
0.0
 40
2.0
100
AcDbArc
 50
280.0
 51
6.297506
  0
SPLINE
  5
158A
100
AcDbEntity
  8
VHH-025
100
AcDbSpline
210
0.0
220
0.0
230
-1.0
 70
     8
 71
     3
 72
    12
 73
     8
 74
     0
 42
0.0000001
 43
0.0000001
 40
0.0
 40
0.0
 40
0.0
 40
0.0
 40
0.6095442177753267
 40
1.191522444246205
 40
3.446974159399096
 40
9.223824065212813
 40
10.45835832968933
 40
10.45835832968933
 40
10.45835832968933
 40
10.45835832968933
 10
328.6406382571476
 20
252.5713236474412
 30
0.0
 10
328.637979844736
 20
252.7790558560427
 30
0.0
 10
328.6327832437964
 20
253.1851258042497
 30
0.0
 10
329.2764302033702
 20
254.1847379206465
 30
0.0
 10
331.6891708252915
 20
255.8073963830247
 30
0.0
 10
334.3466325018416
 20
257.3763979891919
 30
0.0
 10
336.4813559865142
 20
258.3189313683087
 30
0.0
 10
336.8598753883488
 20
258.4796709013389
 30
0.0
  0
SPLINE
  5
158B
100
AcDbEntity
  8
VHH-025
100
AcDbSpline
210
0.0
220
0.0
230
1.0
 70
     8
 71
     3
 72
     9
 73
     5
 74
     3
 42
0.0000001
 43
0.0000001
 44
0.0000000001
 40
0.0
 40
0.0
 40
0.0
 40
0.0
 40
2.733829430437908
 40
5.619066715714707
 40
5.619066715714707
 40
5.619066715714707
 40
5.619066715714707
 10
335.6482272431494
 20
227.2398441439763
 30
0.0
 10
334.7390260173209
 20
227.1766106236319
 30
0.0
 10
332.8702692144791
 20
227.0466415167341
 30
0.0
 10
330.9975666157049
 20
226.999831409362
 30
0.0
 10
330.0359849802516
 20
226.9757956977482
 30
0.0
 11
335.6482272431494
 21
227.2398441439763
 31
0.0
 11
332.9196895609402
 21
227.0698280521119
 31
0.0
 11
330.0359849802516
 21
226.9757956977482
 31
0.0
  0
SPLINE
  5
158C
100
AcDbEntity
  8
VHH-025
100
AcDbSpline
210
0.0
220
0.0
230
-1.0
 70
     8
 71
     3
 72
     8
 73
     4
 74
     0
 42
0.0000001
 43
0.0000001
 40
11.26475349674838
 40
11.26475349674838
 40
11.26475349674838
 40
11.26475349674838
 40
13.18171191061374
 40
13.18171191061374
 40
13.18171191061374
 40
13.18171191061374
 10
337.6046727810609
 20
258.7886356204035
 30
0.0
 10
338.1970033405924
 20
259.0292112705701
 30
0.0
 10
338.7938254918809
 20
259.2609315877371
 30
0.0
 10
339.3906476431694
 20
259.492651904904
 30
0.0
  0
SPLINE
  5
158D
100
AcDbEntity
  8
VHH-025
100
AcDbSpline
210
0.0
220
0.0
230
1.0
 70
     8
 71
     3
 72
    11
 73
     7
 74
     5
 42
0.0000001
 43
0.0000001
 44
0.0000000001
 40
0.0
 40
0.0
 40
0.0
 40
0.0
 40
3.507846858671287
 40
6.874945989829177
 40
13.58365647155533
 40
18.98257100025288
 40
18.98257100025288
 40
18.98257100025288
 40
18.98257100025288
 10
328.6406382571476
 20
226.9751413285675
 30
0.0
 10
329.3942847508465
 20
226.0774690696358
 30
0.0
 10
330.8713386669249
 20
224.3181424669171
 30
0.0
 10
334.3890715177477
 20
221.4463446372173
 30
0.0
 10
338.8152226261372
 20
218.6942194871233
 30
0.0
 10
342.6712196527408
 20
217.4654114702342
 30
0.0
 10
344.3906483888987
 20
216.917473336236
 30
0.0
 11
328.6406382571476
 21
226.9751413285675
 31
0.0
 11
330.9805489057798
 21
224.3617512428154
 31
0.0
 11
333.5541451310819
 21
222.1905858810441
 31
0.0
 11
339.3104886068032
 21
218.7451096995646
 31
0.0
 11
344.3906483888987
 21
216.917473336236
 31
0.0
  0
LINE
  5
158E
100
AcDbEntity
  8
VHH-025
100
AcDbLine
 10
336.390648
 20
248.500001
 30
0.0
 11
335.518848
 21
223.5349
 31
0.0
  0
LINE
  5
158F
100
AcDbEntity
  8
VHH-025
100
AcDbLine
 10
344.390648
 20
220.500001
 30
0.0
 11
344.390648
 21
208.000001
 31
0.0
  0
LINE
  5
1590
100
AcDbEntity
  8
VHH-025
100
AcDbLine
 10
344.390649
 20
206.000001
 30
0.0
 11
344.390649
 21
203.500001
 31
0.0
  0
ARC
  5
1591
100
AcDbEntity
  8
VHH-025
100
AcDbCircle
 10
345.390649
 20
203.500001
 30
0.0
 40
1.0
100
AcDbArc
 50
180.000001
 51
270.000001
  0
ARC
  5
1592
100
AcDbEntity
  8
VHH-025
100
AcDbCircle
 10
343.640648
 20
207.000001
 30
0.0
 40
1.25
100
AcDbArc
 50
306.869898
 51
53.130103
  0
ARC
  5
1593
100
AcDbEntity
  8
VHH-025
100
AcDbCircle
 10
336.518239
 20
223.500001
 30
0.0
 40
1.0
100
AcDbArc
 50
178.000001
 51
270.000001
  0
ARC
  5
1594
100
AcDbEntity
  8
VHH-025
100
AcDbCircle
 10
342.390648
 20
220.500001
 30
0.0
 40
2.0
100
AcDbArc
 50
0.000001
 51
90.000001
  0
ARC
  5
1595
100
AcDbEntity
  8
VHH-025
100
AcDbCircle
 10
337.474598
 20
258.050001
 30
0.0
 40
0.75
100
AcDbArc
 50
90.0
 51
178.0
  0
LINE
  5
1596
100
AcDbEntity
  8
VHH-025
100
AcDbLine
 10
339.390648
 20
266.914697
 30
0.0
 11
339.390648
 21
258.800001
 31
0.0
  0
LINE
  5
1597
100
AcDbEntity
  8
VHH-025
100
AcDbLine
 10
346.865292
 20
250.500001
 30
0.0
 11
345.055162
 21
250.500001
 31
0.0
  0
LINE
  5
1598
100
AcDbEntity
  8
VHH-025
100
AcDbLine
 10
343.196599
 20
250.500001
 30
0.0
 11
341.655167
 21
250.500001
 31
0.0
  0
LINE
  5
1599
100
AcDbEntity
  8
VHH-025
100
AcDbLine
 10
337.976609
 20
250.500001
 30
0.0
 11
337.240167
 21
250.500001
 31
0.0
  0
LINE
  5
159A
100
AcDbEntity
  8
VHH-025
100
AcDbLine
 10
340.184035
 20
250.500001
 30
0.0
 11
339.008156
 21
250.500001
 31
0.0
  0
LINE
  5
159B
100
AcDbEntity
  8
VHH-025
100
AcDbLine
 10
345.055162
 20
250.500001
 30
0.0
 11
345.182177
 21
258.050001
 31
0.0
  0
LINE
  5
159C
100
AcDbEntity
  8
VHH-025
100
AcDbLine
 10
341.655167
 20
250.500001
 30
0.0
 11
341.835649
 21
258.050001
 31
0.0
  0
LINE
  5
159D
100
AcDbEntity
  8
VHH-025
100
AcDbLine
 10
336.390648
 20
248.500001
 30
0.0
 11
336.725055
 21
258.076176
 31
0.0
  0
LINE
  5
159E
100
AcDbEntity
  8
VHH-025
100
AcDbLine
 10
339.008156
 20
250.500001
 30
0.0
 11
339.230764
 21
258.050001
 31
0.0
  0
LINE
  5
159F
100
AcDbEntity
  8
VHH-025
100
AcDbLine
 10
337.240167
 20
250.500001
 30
0.0
 11
337.490914
 21
258.050001
 31
0.0
  0
LINE
  5
15A0
100
AcDbEntity
  8
VHH-025
100
AcDbLine
 10
328.640638
 20
252.571324
 30
0.0
 11
328.640638
 21
226.975141
 31
0.0
  0
LINE
  5
15A1
100
AcDbEntity
  8
VHH-025
100
AcDbLine
 10
329.308186
 20
252.643616
 30
0.0
 11
336.261612
 21
244.804898
 31
0.0
  0
LWPOLYLINE
  5
15A2
100
AcDbEntity
  8
VHH-025
100
AcDbPolyline
 90
        5
 70
   128
 43
0.0
 10
356.541364
 20
265.871069
 42
0.106775
 10
354.448269
 20
268.147117
 42
0.154846
 10
352.390648
 20
268.800001
 42
0.154846
 10
350.333026
 20
268.147117
 42
0.096835
 10
348.390648
 20
266.116629
 42
0.073203
  0
LWPOLYLINE
  5
15A3
100
AcDbEntity
  8
VHH-025
100
AcDbPolyline
 90
        2
 70
   128
 43
0.0
 10
348.390648
 20
266.116629
 42
0.009838
 10
348.239931
 20
265.871069
 42
0.073203
  0
SPLINE
  5
15A4
100
AcDbEntity
  8
VHH-025
100
AcDbSpline
210
0.0
220
0.0
230
-1.0
 70
     8
 71
     3
 72
     8
 73
     4
 74
     0
 42
0.0000001
 43
0.0000001
 40
11.26475349674838
 40
11.26475349674838
 40
11.26475349674838
 40
11.26475349674838
 40
13.18171191061374
 40
13.18171191061374
 40
13.18171191061374
 40
13.18171191061374
 10
367.176622505278
 20
258.7886356204035
 30
0.0
 10
366.5842919457464
 20
259.0292112705701
 30
0.0
 10
365.9874697944579
 20
259.2609315877371
 30
0.0
 10
365.3906476431694
 20
259.492651904904
 30
0.0
  0
LWPOLYLINE
  5
15A5
100
AcDbEntity
  8
VHH-025
100
AcDbPolyline
 90
        3
 70
   128
 43
0.0
 10
358.260648
 20
258.800001
 42
0.0597
 10
357.779968
 20
262.811481
 42
0.073203
 10
356.541364
 20
265.871069
 42
0.106775
  0
SPLINE
  5
15A6
100
AcDbEntity
  8
VHH-025
100
AcDbSpline
210
0.0
220
0.0
230
-1.0
 70
     8
 71
     3
 72
    12
 73
     8
 74
     0
 42
0.0000001
 43
0.0000001
 40
0.0
 40
0.0
 40
0.0
 40
0.0
 40
0.6095442177753267
 40
1.191522444246205
 40
3.446974159399096
 40
9.223824065212813
 40
10.45835832968933
 40
10.45835832968933
 40
10.45835832968933
 40
10.45835832968933
 10
376.1406570291911
 20
252.5713236474412
 30
0.0
 10
376.143315441601
 20
252.7790558560427
 30
0.0
 10
376.1485120425405
 20
253.1851258042497
 30
0.0
 10
375.5048650829668
 20
254.1847379206465
 30
0.0
 10
373.0921244610454
 20
255.8073963830247
 30
0.0
 10
370.4346627844953
 20
257.3763979891919
 30
0.0
 10
368.2999392998227
 20
258.3189313683087
 30
0.0
 10
367.9214198979899
 20
258.4796709013389
 30
0.0
  0
SPLINE
  5
15A7
100
AcDbEntity
  8
VHH-025
100
AcDbSpline
210
0.0
220
0.0
230
1.0
 70
     8
 71
     3
 72
     9
 73
     5
 74
     3
 42
0.0000001
 43
0.0000001
 44
0.0000000001
 40
0.0
 40
0.0
 40
0.0
 40
0.0
 40
2.733829430439723
 40
5.619066715714703
 40
5.619066715714703
 40
5.619066715714703
 40
5.619066715714703
 10
369.1330680431875
 20
227.2398441439763
 30
0.0
 10
370.0422692690167
 20
227.1766106236319
 30
0.0
 10
371.9110260718583
 20
227.0466415167341
 30
0.0
 10
373.7837286706326
 20
226.9998314093621
 30
0.0
 10
374.7453103060853
 20
226.9757956977482
 30
0.0
 11
369.1330680431875
 21
227.2398441439763
 31
0.0
 11
371.8616057253985
 21
227.0698280521119
 31
0.0
 11
374.7453103060853
 21
226.9757956977482
 31
0.0
  0
SPLINE
  5
15A8
100
AcDbEntity
  8
VHH-025
100
AcDbSpline
210
0.0
220
0.0
230
1.0
 70
     8
 71
     3
 72
    11
 73
     7
 74
     5
 42
0.0000001
 43
0.0000001
 44
0.0000000001
 40
0.0
 40
0.0
 40
0.0
 40
0.0
 40
3.507846858671287
 40
6.874945989829177
 40
13.58365647155367
 40
18.98257100025123
 40
18.98257100025123
 40
18.98257100025123
 40
18.98257100025123
 10
376.1406584030047
 20
226.9751413285675
 30
0.0
 10
375.3870119093059
 20
226.0774690696358
 30
0.0
 10
373.9099579932275
 20
224.3181424669171
 30
0.0
 10
370.3922251424049
 20
221.4463446372178
 30
0.0
 10
365.9660740340168
 20
218.6942194871229
 30
0.0
 10
362.1100770074135
 20
217.4654114702341
 30
0.0
 10
360.3906482712555
 20
216.917473336236
 30
0.0
 11
376.1406584030047
 21
226.9751413285675
 31
0.0
 11
373.8007477543725
 21
224.3617512428154
 31
0.0
 11
371.2271515290705
 21
222.1905858810441
 31
0.0
 11
365.4708080533511
 21
218.7451096995646
 31
0.0
 11
360.3906482712555
 21
216.917473336236
 31
0.0
  0
LINE
  5
15A9
100
AcDbEntity
  8
VHH-025
100
AcDbLine
 10
368.390648
 20
248.500001
 30
0.0
 11
369.262449
 21
223.534901
 31
0.0
  0
LINE
  5
15AA
100
AcDbEntity
  8
VHH-025
100
AcDbLine
 10
360.390648
 20
220.500001
 30
0.0
 11
360.390648
 21
208.000001
 31
0.0
  0
LINE
  5
15AB
100
AcDbEntity
  8
VHH-025
100
AcDbLine
 10
360.390649
 20
206.000001
 30
0.0
 11
360.390649
 21
203.500001
 31
0.0
  0
ARC
  5
15AC
100
AcDbEntity
  8
VHH-025
100
AcDbCircle
 10
359.390649
 20
203.500001
 30
0.0
 40
1.0
100
AcDbArc
 50
270.000001
 51
0.000001
  0
ARC
  5
15AD
100
AcDbEntity
  8
VHH-025
100
AcDbCircle
 10
361.140648
 20
207.000001
 30
0.0
 40
1.25
100
AcDbArc
 50
126.869898
 51
233.130103
  0
ARC
  5
15AE
100
AcDbEntity
  8
VHH-025
100
AcDbCircle
 10
362.390648
 20
220.500001
 30
0.0
 40
2.0
100
AcDbArc
 50
90.000001
 51
180.000001
  0
ARC
  5
15AF
100
AcDbEntity
  8
VHH-025
100
AcDbCircle
 10
368.263058
 20
223.500001
 30
0.0
 40
1.0
100
AcDbArc
 50
270.000001
 51
2.000001
  0
LINE
  5
15B0
100
AcDbEntity
  8
VHH-025
100
AcDbLine
 10
376.140657
 20
252.571324
 30
0.0
 11
376.140657
 21
226.975141
 31
0.0
  0
LINE
  5
15B1
100
AcDbEntity
  8
VHH-025
100
AcDbLine
 10
375.473109
 20
252.643616
 30
0.0
 11
368.519683
 21
244.804898
 31
0.0
  0
LINE
  5
15B2
100
AcDbEntity
  8
VHH-025
100
AcDbLine
 10
349.683021
 20
266.522744
 30
0.0
 11
355.098275
 21
266.522744
 31
0.0
  0
LINE
  5
15B3
100
AcDbEntity
  8
VHH-025
100
AcDbLine
 10
348.889679
 20
258.722234
 30
0.0
 11
348.889679
 21
265.745064
 31
0.0
  0
LINE
  5
15B4
100
AcDbEntity
  8
VHH-025
100
AcDbLine
 10
355.891616
 20
258.722234
 30
0.0
 11
355.891616
 21
265.745064
 31
0.0
  0
ARC
  5
15B5
100
AcDbEntity
  8
VHH-025
100
AcDbCircle
 10
367.306697
 20
258.050001
 30
0.0
 40
0.75
100
AcDbArc
 50
2.0
 51
90.0
  0
LINE
  5
15B6
100
AcDbEntity
  8
VHH-025
100
AcDbLine
 10
348.889679
 20
265.745064
 30
0.0
 11
349.683021
 21
266.522744
 31
0.0
  0
LINE
  5
15B7
100
AcDbEntity
  8
VHH-025
100
AcDbLine
 10
348.390648
 20
266.116629
 30
0.0
 11
348.390648
 21
258.800001
 31
0.0
  0
LINE
  5
15B8
100
AcDbEntity
  8
VHH-025
100
AcDbLine
 10
355.891616
 20
265.745064
 30
0.0
 11
355.098275
 21
266.522744
 31
0.0
  0
LINE
  5
15B9
100
AcDbEntity
  8
VHH-025
100
AcDbLine
 10
356.390648
 20
266.116629
 30
0.0
 11
356.390648
 21
258.800001
 31
0.0
  0
LINE
  5
15BA
100
AcDbEntity
  8
VHH-025
100
AcDbLine
 10
365.390648
 20
266.914697
 30
0.0
 11
365.390648
 21
258.800001
 31
0.0
  0
LINE
  5
15BB
100
AcDbEntity
  8
VHH-025
100
AcDbLine
 10
350.970244
 20
250.500001
 30
0.0
 11
349.005153
 21
250.500001
 31
0.0
  0
LINE
  5
15BC
100
AcDbEntity
  8
VHH-025
100
AcDbLine
 10
361.584696
 20
250.500001
 30
0.0
 11
363.126128
 21
250.500001
 31
0.0
  0
LINE
  5
15BD
100
AcDbEntity
  8
VHH-025
100
AcDbLine
 10
357.916003
 20
250.500001
 30
0.0
 11
359.726133
 21
250.500001
 31
0.0
  0
LINE
  5
15BE
100
AcDbEntity
  8
VHH-025
100
AcDbLine
 10
353.811052
 20
250.500001
 30
0.0
 11
355.776143
 21
250.500001
 31
0.0
  0
LINE
  5
15BF
100
AcDbEntity
  8
VHH-025
100
AcDbLine
 10
366.804686
 20
250.500001
 30
0.0
 11
367.541129
 21
250.500001
 31
0.0
  0
LINE
  5
15C0
100
AcDbEntity
  8
VHH-025
100
AcDbLine
 10
364.59726
 20
250.500001
 30
0.0
 11
365.77314
 21
250.500001
 31
0.0
  0
LINE
  5
15C1
100
AcDbEntity
  8
VHH-025
100
AcDbLine
 10
368.390648
 20
248.500001
 30
0.0
 11
368.05624
 21
258.076176
 31
0.0
  0
LINE
  5
15C2
100
AcDbEntity
  8
VHH-025
100
AcDbLine
 10
367.541129
 20
250.500001
 30
0.0
 11
367.290381
 21
258.050001
 31
0.0
  0
LINE
  5
15C3
100
AcDbEntity
  8
VHH-025
100
AcDbLine
 10
355.776143
 20
250.500001
 30
0.0
 11
355.710575
 21
258.050001
 31
0.0
  0
LINE
  5
15C4
100
AcDbEntity
  8
VHH-025
100
AcDbLine
 10
359.726133
 20
250.500001
 30
0.0
 11
359.599118
 21
258.050001
 31
0.0
  0
LINE
  5
15C5
100
AcDbEntity
  8
VHH-025
100
AcDbLine
 10
365.77314
 20
250.500001
 30
0.0
 11
365.550531
 21
258.050001
 31
0.0
  0
LINE
  5
15C6
100
AcDbEntity
  8
VHH-025
100
AcDbLine
 10
363.126128
 20
250.500001
 30
0.0
 11
362.945646
 21
258.050001
 31
0.0
  0
LINE
  5
15C7
100
AcDbEntity
  8
VHH-025
100
AcDbLine
 10
349.005153
 20
250.500001
 30
0.0
 11
349.07072
 21
258.050001
 31
0.0
  0
ARC
  5
15C8
100
AcDbEntity
  8
VHH-025
100
AcDbCircle
 10
642.296287
 20
70.574691
 30
0.0
 40
3.0
100
AcDbArc
 50
116.825111
 51
160.0
  0
ARC
  5
15C9
100
AcDbEntity
  8
VHH-025
100
AcDbCircle
 10
522.487179
 20
70.574691
 30
0.0
 40
3.0
100
AcDbArc
 50
20.0
 51
63.174889
  0
ARC
  5
15CA
100
AcDbEntity
  8
VHH-025
100
AcDbCircle
 10
622.891733
 20
108.947381
 30
0.0
 40
40.0
100
AcDbArc
 50
296.825111
 51
20.0
  0
LINE
  5
15CB
100
AcDbEntity
  8
VHH-025
100
AcDbLine
 10
704.781297
 20
1.0
 30
0.0
 11
677.390645
 21
1.0
 31
0.0
  0
LINE
  5
15CC
100
AcDbEntity
  8
VHH-025
100
AcDbLine
 10
703.200343
 20
0.0
 30
0.0
 11
679.700343
 21
0.0
 31
0.0
  0
ARC
  5
15CD
100
AcDbEntity
  8
VHH-025
100
AcDbCircle
 10
531.201191
 20
72.947381
 30
0.0
 40
6.0
100
AcDbArc
 50
200.0
 51
210.0
  0
LINE
  5
15CE
100
AcDbEntity
  8
VHH-025
100
AcDbLine
 10
525.563035
 20
70.89526
 30
0.0
 11
525.306257
 21
71.600752
 31
0.0
  0
LINE
  5
15CF
100
AcDbEntity
  8
VHH-025
100
AcDbLine
 10
677.390645
 20
1.0
 30
0.0
 11
668.597135
 21
19.9
 31
0.0
  0
LWPOLYLINE
  5
15D0
100
AcDbEntity
  8
VHH-025
100
AcDbPolyline
 90
        6
 70
     0
 43
0.0
 10
654.170257
 20
61.863748
 10
654.864979
 20
61.787149
 10
655.733158
 20
61.725337
 10
656.674452
 20
61.732937
 10
657.348086
 20
61.923053
 10
657.391733
 20
62.025752
  0
ARC
  5
15D1
100
AcDbEntity
  8
VHH-025
100
AcDbCircle
 10
582.391733
 20
-218.756538
 30
0.0
 40
296.0
100
AcDbArc
 50
75.472334
 51
77.186906
  0
ARC
  5
15D2
100
AcDbEntity
  8
VHH-025
100
AcDbCircle
 10
647.370736
 20
66.947381
 30
0.0
 40
3.0
100
AcDbArc
 50
77.186906
 51
90.0
  0
ARC
  5
15D3
100
AcDbEntity
  8
VHH-025
100
AcDbCircle
 10
633.582276
 20
72.947381
 30
0.0
 40
6.0
100
AcDbArc
 50
330.0
 51
340.0
  0
LINE
  5
15D4
100
AcDbEntity
  8
VHH-025
100
AcDbLine
 10
639.477209
 20
71.600752
 30
0.0
 11
639.220431
 21
70.89526
 31
0.0
  0
ARC
  5
15D5
100
AcDbEntity
  8
VHH-025
100
AcDbCircle
 10
656.391733
 20
66.811317
 30
0.0
 40
1.0
100
AcDbArc
 50
360.0
 51
75.472334
  0
LINE
  5
15D6
100
AcDbEntity
  8
VHH-025
100
AcDbLine
 10
654.170257
 20
60.2
 30
0.0
 11
657.391733
 21
60.2
 31
0.0
  0
LINE
  5
15D7
100
AcDbEntity
  8
VHH-025
100
AcDbLine
 10
653.591733
 20
57.5
 30
0.0
 11
653.591733
 21
60.2
 31
0.0
  0
LINE
  5
15D8
100
AcDbEntity
  8
VHH-025
100
AcDbLine
 10
657.391733
 20
60.2
 30
0.0
 11
657.391733
 21
62.025752
 31
0.0
  0
LINE
  5
15D9
100
AcDbEntity
  8
VHH-025
100
AcDbLine
 10
657.391733
 20
66.811317
 30
0.0
 11
657.391733
 21
62.025752
 31
0.0
  0
LINE
  5
15DA
100
AcDbEntity
  8
VHH-025
100
AcDbLine
 10
695.390645
 20
19.9
 30
0.0
 11
695.390645
 21
20.556182
 31
0.0
  0
LINE
  5
15DB
100
AcDbEntity
  8
VHH-025
100
AcDbLine
 10
679.700343
 20
1.0
 30
0.0
 11
679.700343
 21
0.0
 31
0.0
  0
LINE
  5
15DC
100
AcDbEntity
  8
VHH-025
100
AcDbLine
 10
703.068911
 20
39.359717
 30
0.0
 11
704.781297
 21
1.0
 31
0.0
  0
LINE
  5
15DD
100
AcDbEntity
  8
VHH-025
100
AcDbLine
 10
703.200343
 20
1.0
 30
0.0
 11
703.200343
 21
0.0
 31
0.0
  0
ARC
  5
15DE
100
AcDbEntity
  8
VHH-025
100
AcDbCircle
 10
701.870398
 20
39.3
 30
0.0
 40
1.2
100
AcDbArc
 50
2.852436
 51
90.0
  0
LINE
  5
15DF
100
AcDbEntity
  8
VHH-025
100
AcDbLine
 10
699.390645
 20
40.5
 30
0.0
 11
701.870398
 21
40.5
 31
0.0
  0
ARC
  5
15E3
100
AcDbEntity
  8
VHH-025
100
AcDbCircle
 10
621.383766
 20
171.566575
 30
0.0
 40
20.0
100
AcDbArc
 50
20.0
 51
60.0
  0
ARC
  5
15E4
100
AcDbEntity
  8
VHH-025
100
AcDbCircle
 10
543.399701
 20
171.566575
 30
0.0
 40
20.0
100
AcDbArc
 50
120.0
 51
160.0
  0
LINE
  5
15E5
100
AcDbEntity
  8
VHH-025
100
AcDbLine
 10
592.41185
 20
124.912513
 30
0.0
 11
594.268517
 21
215.312444
 31
0.0
  0
LINE
  5
15E6
100
AcDbEntity
  8
VHH-025
100
AcDbLine
 10
572.371617
 20
124.912513
 30
0.0
 11
570.514949
 21
215.312444
 31
0.0
  0
LINE
  5
15E7
100
AcDbEntity
  8
VHH-025
100
AcDbLine
 10
529.673253
 20
72.739647
 30
0.0
 11
635.110214
 21
72.739647
 31
0.0
  0
LINE
  5
15E8
100
AcDbEntity
  8
VHH-025
100
AcDbLine
 10
591.412061
 20
123.933047
 30
0.0
 11
573.371406
 21
123.933047
 31
0.0
  0
ARC
  5
15E9
100
AcDbEntity
  8
VHH-025
100
AcDbCircle
 10
573.371406
 20
124.933047
 30
0.0
 40
1.0
100
AcDbArc
 50
181.176596
 51
270.0
  0
ARC
  5
15EA
100
AcDbEntity
  8
VHH-025
100
AcDbCircle
 10
591.412061
 20
124.933047
 30
0.0
 40
1.0
100
AcDbArc
 50
270.0
 51
358.823404
  0
LINE
  5
15EB
100
AcDbEntity
  8
VHH-025
100
AcDbLine
 10
660.479438
 20
122.628186
 30
0.0
 11
640.177618
 21
178.406978
 31
0.0
  0
LWPOLYLINE
  5
15EC
100
AcDbEntity
  8
VHH-025
100
AcDbPolyline
 90
       10
 70
     0
 43
0.0
 10
550.073826
 20
271.242903
 10
556.243813
 20
271.242861
 10
562.966378
 20
271.2427
 10
572.160768
 20
271.242483
 10
581.690837
 20
271.242378
 10
589.018463
 20
271.242423
 10
596.194724
 20
271.242556
 10
601.965919
 20
271.242705
 10
607.497565
 20
271.242841
 10
614.772421
 20
271.242905
  0
LINE
  5
15ED
100
AcDbEntity
  8
VHH-025
100
AcDbLine
 10
635.530753
 20
265.719382
 30
0.0
 11
529.25489
 21
265.719382
 31
0.0
  0
LINE
  5
15EE
100
AcDbEntity
  8
VHH-025
100
AcDbLine
 10
633.890118
 20
263.530385
 30
0.0
 11
530.895525
 21
263.530385
 31
0.0
  0
LINE
  5
15EF
100
AcDbEntity
  8
VHH-025
100
AcDbLine
 10
550.823719
 20
239.998054
 30
0.0
 11
613.959748
 21
239.998054
 31
0.0
  0
LINE
  5
15F0
100
AcDbEntity
  8
VHH-025
100
AcDbLine
 10
586.827946
 20
255.232054
 30
0.0
 11
633.890118
 21
263.530385
 31
0.0
  0
ELLIPSE
  5
15F1
100
AcDbEntity
  8
VHH-025
100
AcDbEllipse
 10
582.391733
 20
232.376199
 30
0.0
 11
-55.34531666957888
 21
0.0000000000006056
 31
0.0
210
0.0
220
0.0
230
1.0
 40
0.075659
 41
1.715851485383109
 42
4.091489342636988
  0
LINE
  5
15F2
100
AcDbEntity
  8
VHH-025
100
AcDbLine
 10
594.232766
 20
213.571763
 30
0.0
 11
625.004998
 21
213.571763
 31
0.0
  0
LINE
  5
15F3
100
AcDbEntity
  8
VHH-025
100
AcDbLine
 10
593.734543
 20
189.313593
 30
0.0
 11
630.641733
 21
189.313593
 31
0.0
  0
ELLIPSE
  5
15F4
100
AcDbEntity
  8
VHH-025
100
AcDbEllipse
 10
582.391733
 20
216.002303
 30
0.0
 11
12.11355288946792
 21
0.001334442023445
 31
0.0
210
0.0
220
0.0
230
1.0
 40
0.061344
 41
0.4593740353573961
 42
2.67862704165174
  0
ARC
  5
15F5
100
AcDbEntity
  8
VHH-025
100
AcDbCircle
 10
586.391733
 20
219.982744
 30
0.0
 40
1.0
100
AcDbArc
 50
270.0
 51
0.0
  0
LINE
  5
15F6
100
AcDbEntity
  8
VHH-025
100
AcDbLine
 10
591.392821
 20
288.671954
 30
0.0
 11
573.392821
 21
288.671954
 31
0.0
  0
ARC
  5
15F7
100
AcDbEntity
  8
VHH-025
100
AcDbCircle
 10
586.391733
 20
236.35207
 30
0.0
 40
1.0
100
AcDbArc
 50
0.0
 51
90.0
  0
ELLIPSE
  5
15F8
100
AcDbEntity
  8
VHH-025
100
AcDbEllipse
 10
549.462271
 20
271.352594
 30
0.0
 11
-0.0000055313271815
 21
0.9999999999763709
 31
0.0
210
0.0
220
0.0
230
1.0
 40
0.615267
 41
4.602473364330868
 42
5.206673556376944
  0
ELLIPSE
  5
15F9
100
AcDbEntity
  8
VHH-025
100
AcDbEllipse
 10
540.248442
 20
271.352596
 30
0.0
 11
0.0000044791293391
 21
0.9999999999706712
 31
0.0
210
0.0
220
0.0
230
1.0
 40
0.787417
 41
4.602480294514935
 42
5.206678977368046
  0
LWPOLYLINE
  5
15FA
100
AcDbEntity
  8
VHH-025
100
AcDbPolyline
 90
        3
 70
     0
 43
0.0
 10
529.864391
 20
271.242378
 10
529.85153
 20
271.545546
 10
529.748332
 20
271.8309
  0
LWPOLYLINE
  5
15FB
100
AcDbEntity
  8
VHH-025
100
AcDbPolyline
 90
        6
 70
     0
 43
0.0
 10
529.864473
 20
271.242378
 10
530.331941
 20
271.242428
 10
531.710068
 20
271.242556
 10
533.648257
 20
271.242705
 10
536.251923
 20
271.242841
 10
541.031107
 20
271.242905
  0
LWPOLYLINE
  5
15FC
100
AcDbEntity
  8
VHH-025
100
AcDbPolyline
 90
        6
 70
     0
 43
0.0
 10
541.031107
 20
271.242905
 10
541.930622
 20
271.242892
 10
544.871353
 20
271.24286
 10
547.133173
 20
271.242869
 10
548.826959
 20
271.242889
 10
550.073826
 20
271.242903
  0
ELLIPSE
  5
15FD
100
AcDbEntity
  8
VHH-025
100
AcDbEllipse
 10
582.391733
 20
232.376199
 30
0.0
 11
55.34531666957889
 21
0.0000000000006056
 31
0.0
210
0.0
220
0.0
230
1.0
 40
0.075659
 41
2.191695964542597
 42
4.567333821796475
  0
LINE
  5
15FE
100
AcDbEntity
  8
VHH-025
100
AcDbLine
 10
577.391733
 20
216.679059
 30
0.0
 11
577.391733
 21
236.35207
 31
0.0
  0
LINE
  5
15FF
100
AcDbEntity
  8
VHH-025
100
AcDbLine
 10
527.263351
 20
232.005811
 30
0.0
 11
539.762812
 21
215.178962
 31
0.0
  0
LINE
  5
1600
100
AcDbEntity
  8
VHH-025
100
AcDbLine
 10
574.391733
 20
216.559935
 30
0.0
 11
574.391733
 21
230.743047
 31
0.0
  0
LINE
  5
1601
100
AcDbEntity
  8
VHH-025
100
AcDbLine
 10
539.720675
 20
213.571763
 30
0.0
 11
570.5507
 21
213.571763
 31
0.0
  0
ARC
  5
1602
100
AcDbEntity
  8
VHH-025
100
AcDbCircle
 10
539.147151
 20
214.390952
 30
0.0
 40
1.0
100
AcDbArc
 50
275.0
 51
52.0
  0
ARC
  5
1603
100
AcDbEntity
  8
VHH-025
100
AcDbCircle
 10
535.641733
 20
211.574718
 30
0.0
 40
1.5
100
AcDbArc
 50
95.0
 51
180.0
  0
LINE
  5
1604
100
AcDbEntity
  8
VHH-025
100
AcDbLine
 10
535.511
 20
213.06901
 30
0.0
 11
539.234306
 21
213.394757
 31
0.0
  0
ARC
  5
1605
100
AcDbEntity
  8
VHH-025
100
AcDbCircle
 10
578.391733
 20
219.982744
 30
0.0
 40
1.0
100
AcDbArc
 50
180.0
 51
270.0
  0
ARC
  5
1606
100
AcDbEntity
  8
VHH-025
100
AcDbCircle
 10
571.514739
 20
215.332978
 30
0.0
 40
1.0
100
AcDbArc
 50
90.0
 51
181.176596
  0
LINE
  5
1607
100
AcDbEntity
  8
VHH-025
100
AcDbLine
 10
571.553314
 20
216.332978
 30
0.0
 11
571.514739
 21
216.332978
 31
0.0
  0
LINE
  5
1608
100
AcDbEntity
  8
VHH-025
100
AcDbLine
 10
586.391733
 20
218.982744
 30
0.0
 11
578.391733
 21
218.982744
 31
0.0
  0
LINE
  5
1609
100
AcDbEntity
  8
VHH-025
100
AcDbLine
 10
577.957696
 20
255.232054
 30
0.0
 11
530.895525
 21
263.530385
 31
0.0
  0
LINE
  5
160A
100
AcDbEntity
  8
VHH-025
100
AcDbLine
 10
549.95623
 20
228.98328
 30
0.0
 11
550.324023
 21
239.515504
 31
0.0
  0
ARC
  5
160B
100
AcDbEntity
  8
VHH-025
100
AcDbCircle
 10
531.242821
 20
265.5
 30
0.0
 40
2.0
100
AcDbArc
 50
173.702494
 51
260.0
  0
LINE
  5
160C
100
AcDbEntity
  8
VHH-025
100
AcDbLine
 10
529.864391
 20
271.242378
 30
0.0
 11
529.25489
 21
265.719382
 31
0.0
  0
ARC
  5
160D
100
AcDbEntity
  8
VHH-025
100
AcDbCircle
 10
550.823719
 20
239.498054
 30
0.0
 40
0.5
100
AcDbArc
 50
90.0
 51
178.0
  0
LINE
  5
160E
100
AcDbEntity
  8
VHH-025
100
AcDbLine
 10
577.391733
 20
231.743047
 30
0.0
 11
575.391733
 21
231.743047
 31
0.0
  0
ARC
  5
160F
100
AcDbEntity
  8
VHH-025
100
AcDbCircle
 10
575.391733
 20
230.743047
 30
0.0
 40
1.0
100
AcDbArc
 50
90.0
 51
180.0
  0
ARC
  5
1610
100
AcDbEntity
  8
VHH-025
100
AcDbCircle
 10
587.001594
 20
254.247246
 30
0.0
 40
1.0
100
AcDbArc
 50
100.0
 51
150.0
  0
LINE
  5
1611
100
AcDbEntity
  8
VHH-025
100
AcDbLine
 10
585.992821
 20
254.5
 30
0.0
 11
586.135569
 21
254.747246
 31
0.0
  0
ARC
  5
1612
100
AcDbEntity
  8
VHH-025
100
AcDbCircle
 10
577.784048
 20
254.247246
 30
0.0
 40
1.0
100
AcDbArc
 50
30.0
 51
80.0
  0
LINE
  5
1613
100
AcDbEntity
  8
VHH-025
100
AcDbLine
 10
578.792821
 20
254.5
 30
0.0
 11
578.650074
 21
254.747246
 31
0.0
  0
LINE
  5
1614
100
AcDbEntity
  8
VHH-025
100
AcDbLine
 10
585.992821
 20
254.5
 30
0.0
 11
578.792821
 21
254.5
 31
0.0
  0
ARC
  5
1615
100
AcDbEntity
  8
VHH-025
100
AcDbCircle
 10
578.391733
 20
236.35207
 30
0.0
 40
1.0
100
AcDbArc
 50
90.0
 51
180.0
  0
LINE
  5
1616
100
AcDbEntity
  8
VHH-025
100
AcDbLine
 10
586.391733
 20
237.35207
 30
0.0
 11
578.391733
 21
237.35207
 31
0.0
  0
LINE
  5
1617
100
AcDbEntity
  8
VHH-025
100
AcDbLine
 10
587.391733
 20
216.679059
 30
0.0
 11
587.391733
 21
236.35207
 31
0.0
  0
LINE
  5
1618
100
AcDbEntity
  8
VHH-025
100
AcDbLine
 10
590.391733
 20
216.559935
 30
0.0
 11
590.391733
 21
230.743047
 31
0.0
  0
LINE
  5
1619
100
AcDbEntity
  8
VHH-025
100
AcDbLine
 10
593.268728
 20
216.332978
 30
0.0
 11
593.230153
 21
216.332978
 31
0.0
  0
ARC
  5
161A
100
AcDbEntity
  8
VHH-025
100
AcDbCircle
 10
593.268728
 20
215.332978
 30
0.0
 40
1.0
100
AcDbArc
 50
358.823404
 51
90.0
  0
LINE
  5
161B
100
AcDbEntity
  8
VHH-025
100
AcDbLine
 10
589.391733
 20
231.743047
 30
0.0
 11
587.391733
 21
231.743047
 31
0.0
  0
ARC
  5
161C
100
AcDbEntity
  8
VHH-025
100
AcDbCircle
 10
589.391733
 20
230.743047
 30
0.0
 40
1.0
100
AcDbArc
 50
0.0
 51
90.0
  0
LINE
  5
161D
100
AcDbEntity
  8
VHH-025
100
AcDbLine
 10
534.141733
 20
189.313593
 30
0.0
 11
571.048923
 21
189.313593
 31
0.0
  0
LINE
  5
161E
100
AcDbEntity
  8
VHH-025
100
AcDbLine
 10
533.399701
 20
188.887083
 30
0.0
 11
534.141733
 21
189.315496
 31
0.0
  0
LINE
  5
161F
100
AcDbEntity
  8
VHH-025
100
AcDbLine
 10
534.141733
 20
211.574718
 30
0.0
 11
534.141733
 21
189.313593
 31
0.0
  0
LWPOLYLINE
  5
1620
100
AcDbEntity
  8
VHH-025
100
AcDbPolyline
 90
        3
 70
     0
 43
0.0
 10
635.03731
 20
271.8309
 10
634.934113
 20
271.545546
 10
634.921252
 20
271.242378
  0
ELLIPSE
  5
1621
100
AcDbEntity
  8
VHH-025
100
AcDbEllipse
 10
624.585469
 20
271.352594
 30
0.0
 11
-0.0000043170876913
 21
0.9999999999737386
 31
0.0
210
0.0
220
0.0
230
1.0
 40
0.788319
 41
1.076504944317234
 42
1.680705136365019
  0
ELLIPSE
  5
1622
100
AcDbEntity
  8
VHH-025
100
AcDbEllipse
 10
615.385123
 20
271.352596
 30
0.0
 11
0.0000057216521182
 21
0.999999999975374
 31
0.0
210
0.0
220
0.0
230
1.0
 40
0.616421
 41
1.076513383701558
 42
1.680712066550641
  0
LWPOLYLINE
  5
1623
100
AcDbEntity
  8
VHH-025
100
AcDbPolyline
 90
        6
 70
     0
 43
0.0
 10
614.772421
 20
271.242905
 10
615.889694
 20
271.242892
 10
619.153804
 20
271.24286
 10
621.328505
 20
271.242869
 10
622.797808
 20
271.242889
 10
623.801908
 20
271.242903
  0
LWPOLYLINE
  5
1624
100
AcDbEntity
  8
VHH-025
100
AcDbPolyline
 90
        6
 70
     0
 43
0.0
 10
623.801908
 20
271.242903
 10
627.772264
 20
271.242867
 10
630.919276
 20
271.242718
 10
632.88288
 20
271.242573
 10
634.203843
 20
271.242451
 10
634.921252
 20
271.242378
  0
LINE
  5
1625
100
AcDbEntity
  8
VHH-025
100
AcDbLine
 10
637.520115
 20
232.005811
 30
0.0
 11
625.020654
 21
215.178962
 31
0.0
  0
ARC
  5
1626
100
AcDbEntity
  8
VHH-025
100
AcDbCircle
 10
629.141733
 20
211.574718
 30
0.0
 40
1.5
100
AcDbArc
 50
0.0
 51
85.0
  0
ARC
  5
1627
100
AcDbEntity
  8
VHH-025
100
AcDbCircle
 10
625.636316
 20
214.390952
 30
0.0
 40
1.0
100
AcDbArc
 50
128.0
 51
265.0
  0
LINE
  5
1628
100
AcDbEntity
  8
VHH-025
100
AcDbLine
 10
629.272467
 20
213.06901
 30
0.0
 11
625.54916
 21
213.394757
 31
0.0
  0
LINE
  5
1629
100
AcDbEntity
  8
VHH-025
100
AcDbLine
 10
614.827237
 20
228.98328
 30
0.0
 11
614.459443
 21
239.515504
 31
0.0
  0
ARC
  5
162A
100
AcDbEntity
  8
VHH-025
100
AcDbCircle
 10
633.542821
 20
265.5
 30
0.0
 40
2.0
100
AcDbArc
 50
280.0
 51
6.297506
  0
ARC
  5
162B
100
AcDbEntity
  8
VHH-025
100
AcDbCircle
 10
613.959748
 20
239.498054
 30
0.0
 40
0.5
100
AcDbArc
 50
2.0
 51
90.0
  0
LINE
  5
162C
100
AcDbEntity
  8
VHH-025
100
AcDbLine
 10
634.921252
 20
271.242378
 30
0.0
 11
635.530753
 21
265.719382
 31
0.0
  0
LINE
  5
162D
100
AcDbEntity
  8
VHH-025
100
AcDbLine
 10
631.383766
 20
188.887083
 30
0.0
 11
630.641733
 21
189.315496
 31
0.0
  0
LINE
  5
162E
100
AcDbEntity
  8
VHH-025
100
AcDbLine
 10
630.641733
 20
211.574718
 30
0.0
 11
630.641733
 21
189.313593
 31
0.0
  0
LINE
  5
164B
100
AcDbEntity
  8
VHH-025
100
AcDbLine
 10
482.87311
 20
349.777798
 30
0.0
 11
680.004153
 21
349.777834
 31
0.0
  0
LINE
  5
164C
100
AcDbEntity
  8
VHH-025
100
AcDbLine
 10
474.138061
 20
347.9
 30
0.0
 11
690.64487
 21
347.9
 31
0.0
  0
LINE
  5
164D
100
AcDbEntity
  8
VHH-025
100
AcDbLine
 10
471.195651
 20
358.2
 30
0.0
 11
693.589991
 21
358.2
 31
0.0
  0
LINE
  5
164E
100
AcDbEntity
  8
VHH-025
100
AcDbLine
 10
471.221805
 20
359.2
 30
0.0
 11
693.563838
 21
359.2
 31
0.0
  0
SPLINE
  5
164F
100
AcDbEntity
  8
VHH-025
100
AcDbSpline
210
0.0
220
0.0
230
-1.0
 70
     8
 71
     3
 72
    15
 73
    11
 74
     9
 42
0.0000001
 43
0.0000001
 44
0.0000000001
 40
0.0
 40
0.0
 40
0.0
 40
0.0
 40
8.727930916723018
 40
16.25763323255779
 40
20.36216076943303
 40
21.62307303412681
 40
23.69549543386659
 40
25.38624445710535
 40
45.72281463408979
 40
79.43205808847309
 40
79.43205808847309
 40
79.43205808847309
 40
79.43205808847309
 10
477.2558955076857
 20
421.700000154683
 30
0.0
 10
477.9546740647483
 20
424.5165902787392
 30
0.0
 10
479.2562981953579
 20
429.7630902384963
 30
0.0
 10
481.1863851523557
 20
436.3571665177101
 30
0.0
 10
483.4928038303456
 20
439.9812058379029
 30
0.0
 10
485.0310576492743
 20
441.9824605104744
 30
0.0
 10
486.7208052225189
 20
442.5205618189427
 30
0.0
 10
494.6568279415569
 20
443.305266123906
 30
0.0
 10
513.2177504311986
 20
445.2216375837597
 30
0.0
 10
531.1858367448559
 20
446.2672750766846
 30
0.0
 10
542.3928212504034
 20
446.9194560033047
 30
0.0
 11
477.2558955076857
 21
421.700000154683
 31
0.0
 11
479.4212293964666
 21
430.1550641542744
 31
0.0
 11
481.9207514916489
 21
437.2577964638003
 31
0.0
 11
484.0891867317769
 21
440.7427691911452
 31
0.0
 11
484.9250010043435
 21
441.6868635937499
 31
0.0
 11
486.8411493658351
 21
442.476363473228
 31
0.0
 11
488.5172580037179
 21
442.6983817013024
 31
0.0
 11
508.7602760053833
 21
444.6467935539821
 31
0.0
 11
542.3928212504034
 21
446.9194560033047
 31
0.0
  0
LINE
  5
1650
100
AcDbEntity
  8
VHH-025
100
AcDbLine
 10
495.25728
 20
347.1
 30
0.0
 11
669.528362
 21
347.1
 31
0.0
  0
LINE
  5
1651
100
AcDbEntity
  8
VHH-025
100
AcDbLine
 10
495.25728
 20
346.5
 30
0.0
 11
669.528362
 21
346.5
 31
0.0
  0
LINE
  5
1652
100
AcDbEntity
  8
VHH-025
100
AcDbLine
 10
526.568686
 20
389.652282
 30
0.0
 11
521.663725
 21
389.400051
 31
0.0
  0
LINE
  5
1653
100
AcDbEntity
  8
VHH-025
100
AcDbLine
 10
526.604636
 20
388.953206
 30
0.0
 11
504.314845
 21
387.806981
 31
0.0
  0
LINE
  5
1654
100
AcDbEntity
  8
VHH-025
100
AcDbLine
 10
521.685988
 20
424.046433
 30
0.0
 11
526.66096
 21
424.278882
 31
0.0
  0
LINE
  5
1655
100
AcDbEntity
  8
VHH-025
100
AcDbLine
 10
504.28452
 20
423.934137
 30
0.0
 11
526.628289
 21
424.978119
 31
0.0
  0
SPLINE
  5
1656
100
AcDbEntity
  8
VHH-025
100
AcDbSpline
210
0.0
220
0.0
230
-1.0
 70
     8
 71
     3
 72
    14
 73
    10
 74
     0
 42
0.0000001
 43
0.0000001
 40
0.0
 40
0.0
 40
0.0
 40
0.0
 40
8.543455177382728
 40
32.60806185346405
 40
34.09251365044104
 40
35.82256549595564
 40
37.21403762249804
 40
38.48665207093368
 40
38.6143838058074
 40
38.6143838058074
 40
38.6143838058074
 40
38.6143838058074
 10
352.3917344029543
 20
444.5729801514044
 30
0.0
 10
349.5424479249651
 20
444.5609811172362
 30
0.0
 10
338.6674906877052
 20
444.5151840433118
 30
0.0
 10
326.8977622094225
 20
444.4312267889308
 30
0.0
 10
318.2093701817994
 20
444.1590829833203
 30
0.0
 10
316.7578560980528
 20
443.4382751519187
 30
0.0
 10
315.9274506714373
 20
442.1360331845171
 30
0.0
 10
315.9033594234679
 20
441.1915641575578
 30
0.0
 10
315.8936849671354
 20
440.7193440493393
 30
0.0
 10
315.892822250953
 20
440.6762831537071
 30
0.0
  0
SPLINE
  5
1657
100
AcDbEntity
  8
VHH-025
100
AcDbSpline
210
0.0
220
0.0
230
1.0
 70
     8
 71
     3
 72
    13
 73
     9
 74
     7
 42
0.0000001
 43
0.0000001
 44
0.0000000001
 40
0.0
 40
0.0
 40
0.0
 40
0.0
 40
3.284478271108604
 40
5.848013776661914
 40
8.811210366640917
 40
13.31059109350597
 40
22.19952180646399
 40
44.1530854654978
 40
44.1530854654978
 40
44.1530854654978
 40
44.1530854654978
 10
312.392822250953
 20
379.4177674662405
 30
0.0
 10
312.5410004817681
 20
378.3136587897746
 30
0.0
 10
312.8048318314321
 20
376.3477932190687
 30
0.0
 10
314.6029711851519
 20
373.9197369067371
 30
0.0
 10
317.4674724559186
 20
371.998322350053
 30
0.0
 10
323.0748956072317
 20
371.8006041290076
 30
0.0
 10
334.7387620305566
 20
371.7017952914089
 30
0.0
 10
345.051150272422
 20
371.6672750274952
 30
0.0
 10
352.3914668179624
 20
371.6427036422428
 30
0.0
 11
312.392822250953
 21
379.4177674662405
 31
0.0
 11
313.1305883510285
 21
376.2172208418396
 31
0.0
 11
314.6184751806777
 21
374.1296607659642
 31
0.0
 11
317.0959109554642
 21
372.503977521088
 31
0.0
 11
321.5500804567145
 21
371.8677378025731
 31
0.0
 11
330.438130516557
 21
371.7426164474727
 31
0.0
 11
352.3914668179624
 21
371.6427036422428
 31
0.0
  0
SPLINE
  5
1658
100
AcDbEntity
  8
VHH-025
100
AcDbSpline
210
0.0
220
0.0
230
1.0
 70
     8
 71
     3
 72
    13
 73
     9
 74
     0
 42
0.0000001
 43
0.0000001
 40
84.6955679326532
 40
84.6955679326532
 40
84.6955679326532
 40
84.6955679326532
 40
85.81548028374967
 40
86.6565862794542
 40
87.78626872105837
 40
90.14984869879972
 40
105.9639654671869
 40
122.7164926965437
 40
122.7164926965437
 40
122.7164926965437
 40
122.7164926965437
 10
315.892822250953
 20
394.5965874588546
 30
0.0
 10
315.9339587166978
 20
394.2189825823043
 30
0.0
 10
316.0110181290674
 20
393.5572200834922
 30
0.0
 10
316.6144328498885
 20
392.6939072621298
 30
0.0
 10
317.7952389507263
 20
391.7768441575299
 30
0.0
 10
324.5318143463518
 20
391.9075542287355
 30
0.0
 10
335.8662561636574
 20
392.066341626607
 30
0.0
 10
346.779871559309
 20
392.2371169104135
 30
0.0
 10
352.3939176089735
 20
392.3249650040725
 30
0.0
  0
LINE
  5
1659
100
AcDbEntity
  8
VHH-025
100
AcDbLine
 10
241.221806
 20
359.2
 30
0.0
 11
463.563839
 21
359.2
 31
0.0
  0
LINE
  5
165A
100
AcDbEntity
  8
VHH-025
100
AcDbLine
 10
241.875433
 20
358.2
 30
0.0
 11
462.95691
 21
358.2
 31
0.0
  0
ARC
  5
165B
100
AcDbEntity
  8
VHH-025
100
AcDbCircle
 10
348.100419
 20
-282.949534
 30
0.0
 40
730.516587
100
AcDbArc
 50
89.663337
 51
92.80173
  0
LINE
  5
165C
100
AcDbEntity
  8
VHH-025
100
AcDbLine
 10
345.891734
 20
407.001541
 30
0.0
 11
358.891734
 21
407.001541
 31
0.0
  0
LINE
  5
165D
100
AcDbEntity
  8
VHH-025
100
AcDbLine
 10
345.891734
 20
418.501541
 30
0.0
 11
358.891734
 21
418.501541
 31
0.0
  0
LWPOLYLINE
  5
165E
100
AcDbEntity
  8
VHH-025
100
AcDbPolyline
 90
        4
 70
     1
 43
0.0
 10
294.112027
 20
402.235148
 10
294.862305
 20
402.235148
 10
294.862305
 20
397.970476
 10
294.112027
 20
397.970476
  0
ELLIPSE
  5
165F
100
AcDbEntity
  8
VHH-025
100
AcDbEllipse
 10
280.878278
 20
399.652897
 30
0.0
 11
-0.5847090253523675
 21
-3.845560362166452
 31
0.0
210
0.0
220
0.0
230
1.0
 40
0.934504
 41
0.0
 42
6.283185307179586
  0
LWPOLYLINE
  5
1660
100
AcDbEntity
  8
VHH-025
100
AcDbPolyline
 90
        3
 70
     0
 43
0.0
 10
227.525402
 20
421.7
 10
225.28896
 20
421.7
 10
227.572532
 20
378.085357
  0
LWPOLYLINE
  5
1661
100
AcDbEntity
  8
VHH-025
100
AcDbPolyline
 90
        3
 70
     0
 43
0.0
 10
247.255897
 20
421.7
 10
249.492338
 20
421.7
 10
247.208766
 20
378.085357
  0
LINE
  5
1662
100
AcDbEntity
  8
VHH-025
100
AcDbLine
 10
254.377865
 20
440.407869
 30
0.0
 11
252.098343
 21
359.2
 31
0.0
  0
LINE
  5
1663
100
AcDbEntity
  8
VHH-025
100
AcDbLine
 10
273.964389
 20
393.654525
 30
0.0
 11
275.019992
 21
420.120205
 31
0.0
  0
LINE
  5
1664
100
AcDbEntity
  8
VHH-025
100
AcDbLine
 10
272.636423
 20
389.341991
 30
0.0
 11
272.603366
 21
422.238518
 31
0.0
  0
LINE
  5
1665
100
AcDbEntity
  8
VHH-025
100
AcDbLine
 10
315.892822
 20
440.676283
 30
0.0
 11
315.892822
 21
394.596587
 31
0.0
  0
LINE
  5
1666
100
AcDbEntity
  8
VHH-025
100
AcDbLine
 10
297.607053
 20
423.405642
 30
0.0
 11
297.586057
 21
390.73208
 31
0.0
  0
LINE
  5
1667
100
AcDbEntity
  8
VHH-025
100
AcDbLine
 10
298.305973
 20
423.44451
 30
0.0
 11
298.281926
 21
390.656147
 31
0.0
  0
LINE
  5
1668
100
AcDbEntity
  8
VHH-025
100
AcDbLine
 10
312.392822
 20
446.919456
 30
0.0
 11
312.392822
 21
379.417767
 31
0.0
  0
LINE
  5
1669
100
AcDbEntity
  8
VHH-025
100
AcDbLine
 10
291.685989
 20
424.046433
 30
0.0
 11
291.663726
 21
389.400051
 31
0.0
  0
LINE
  5
166A
100
AcDbEntity
  8
VHH-025
100
AcDbLine
 10
288.978916
 20
421.013646
 30
0.0
 11
287.925066
 21
394.217127
 31
0.0
  0
LINE
  5
166B
100
AcDbEntity
  8
VHH-025
100
AcDbLine
 10
289.740637
 20
422.141054
 30
0.0
 11
289.601683
 21
390.830639
 31
0.0
  0
LINE
  5
166C
100
AcDbEntity
  8
VHH-025
100
AcDbLine
 10
220.403434
 20
440.407869
 30
0.0
 11
222.682956
 21
359.2
 31
0.0
  0
SPLINE
  5
166D
100
AcDbEntity
  8
VHH-025
100
AcDbSpline
210
0.0
220
0.0
230
1.0
 70
     8
 71
     3
 72
    17
 73
    13
 74
    11
 42
0.0000001
 43
0.0000001
 44
0.0000000001
 40
0.0
 40
0.0
 40
0.0
 40
0.0
 40
0.5545798661035835
 40
1.653562178450133
 40
2.750923934510922
 40
3.848571212511746
 40
4.674193321129415
 40
5.488636099266186
 40
8.52417256482677
 40
12.84394436806059
 40
16.51294489443546
 40
20.18194542081096
 40
20.18194542081096
 40
20.18194542081096
 40
20.18194542081096
 10
227.5725324312225
 20
378.0853574984503
 30
0.0
 10
227.6004422366572
 20
377.9026698175621
 30
0.0
 10
227.6836594637789
 20
377.3579593835031
 30
0.0
 10
227.9179907971891
 20
376.4646237353086
 30
0.0
 10
228.4493258969852
 20
375.4910481188911
 30
0.0
 10
229.1183393874728
 20
374.7299702545482
 30
0.0
 10
229.8358445908106
 20
374.1564970038736
 30
0.0
 10
230.7090703811764
 20
372.8443091403952
 30
0.0
 10
231.5235247419663
 20
370.221598923356
 30
0.0
 10
232.5758777350162
 20
366.6990277768245
 30
0.0
 10
233.0056299384243
 20
362.8252619162198
 30
0.0
 10
233.3748716398407
 20
360.4084207388928
 30
0.0
 10
233.559492490549
 20
359.2000001502292
 30
0.0
 11
227.5725324312225
 21
378.0853574984503
 31
0.0
 11
227.6627451224139
 21
377.5381642069751
 31
0.0
 11
227.9599878301851
 21
376.4801429900198
 31
0.0
 11
228.482293525818
 21
375.5150525362414
 31
0.0
 11
229.2040221375009
 21
374.6880474830641
 31
0.0
 11
229.8074697040174
 21
374.1245735256325
 31
0.0
 11
230.2792524257511
 21
373.4606924351255
 31
0.0
 11
231.3901933034721
 21
370.6357513738012
 31
0.0
 11
232.5011341811932
 21
366.4612767004773
 31
0.0
 11
233.030313335872
 21
362.8306384253537
 31
0.0
 11
233.559492490549
 21
359.2000001502292
 31
0.0
  0
SPLINE
  5
166E
100
AcDbEntity
  8
VHH-025
100
AcDbSpline
210
0.0
220
0.0
230
-1.0
 70
     8
 71
     3
 72
    13
 73
     9
 74
     7
 42
0.0000001
 43
0.0000001
 44
0.0000000001
 40
0.0
 40
0.0
 40
0.0
 40
0.0
 40
5.15733124212759
 40
11.03348381863833
 40
14.61916662718481
 40
16.7824266035245
 40
17.8917438422132
 40
18.52503597702112
 40
18.52503597702112
 40
18.52503597702112
 40
18.52503597702112
 10
226.9280948825035
 20
359.2000001114847
 30
0.0
 10
226.8390791018085
 20
360.9169780778866
 30
0.0
 10
226.6486406502546
 20
364.5902439046981
 30
0.0
 10
226.5198567207176
 20
369.4602549082196
 30
0.0
 10
226.4987339333866
 20
373.3399900125478
 30
0.0
 10
226.7442492167007
 20
375.6167616270013
 30
0.0
 10
227.0223461873077
 20
376.8932364663029
 30
0.0
 10
227.2261630789765
 20
377.437658794143
 30
0.0
 10
227.3002333992662
 20
377.6355105809398
 30
0.0
 11
226.9280948825035
 21
359.2000001114847
 31
0.0
 11
226.6814196002578
 21
364.3514287333482
 31
0.0
 11
226.5251962935108
 21
370.2255042674951
 31
0.0
 11
226.5802738636084
 21
373.8107640439657
 31
0.0
 11
226.8326016070568
 21
375.9592575708629
 31
0.0
 11
227.0885542598498
 21
377.0386430328644
 31
0.0
 11
227.3002333992662
 21
377.6355105809398
 31
0.0
  0
SPLINE
  5
166F
100
AcDbEntity
  8
VHH-025
100
AcDbSpline
210
0.0
220
0.0
230
1.0
 70
     8
 71
     3
 72
    11
 73
     7
 74
     5
 42
0.0000001
 43
0.0000001
 44
0.0000000001
 40
0.0
 40
0.0
 40
0.0
 40
0.0
 40
0.6501585836432341
 40
1.328696847749696
 40
2.007498148689249
 40
2.665365116565286
 40
2.665365116565286
 40
2.665365116565286
 40
2.665365116565286
 10
232.507546226645
 20
349.479886350683
 30
0.0
 10
232.4690568637095
 20
349.2617176408115
 30
0.0
 10
232.390398061856
 20
348.8158570702112
 30
0.0
 10
231.8999937454965
 20
348.3199186768729
 30
0.0
 10
231.3122500637065
 20
347.9706116462886
 30
0.0
 10
230.8638998981134
 20
347.9232902761233
 30
0.0
 10
230.6432357506455
 20
347.9000001546828
 30
0.0
 11
232.507546226645
 21
349.479886350683
 31
0.0
 11
232.3331955232024
 21
348.853541384954
 31
0.0
 11
231.8839906142038
 21
348.3449854631635
 31
0.0
 11
231.291056472306
 21
348.0145307619877
 31
0.0
 11
230.6432357506455
 21
347.9000001546828
 31
0.0
  0
SPLINE
  5
1670
100
AcDbEntity
  8
VHH-025
100
AcDbSpline
210
0.0
220
0.0
230
1.0
 70
     8
 71
     3
 72
    12
 73
     8
 74
     6
 42
0.0000001
 43
0.0000001
 44
0.0000000001
 40
0.0
 40
0.0
 40
0.0
 40
0.0
 40
0.5662025144864266
 40
1.132136061659262
 40
1.697787119143812
 40
2.263116602109281
 40
2.828292171028452
 40
2.828292171028452
 40
2.828292171028452
 40
2.828292171028452
 10
226.5420058648505
 20
349.6078597155219
 30
0.0
 10
226.5034716285766
 20
349.4209906306536
 30
0.0
 10
226.4264214612283
 20
349.0473412307022
 30
0.0
 10
226.087512932209
 20
348.5795073738379
 30
0.0
 10
225.6722846696059
 20
348.1881665273071
 30
0.0
 10
225.1398342228276
 20
347.9617161549872
 30
0.0
 10
224.764270550902
 20
347.9205702874988
 30
0.0
 10
224.5765142807358
 20
347.9000001546828
 30
0.0
 11
226.5420058648505
 21
349.6078597155219
 31
0.0
 11
226.3891493756454
 21
349.0626806796826
 31
0.0
 11
226.0746976961454
 21
348.5921480866827
 31
0.0
 11
225.6526232766446
 21
348.215565687683
 31
0.0
 11
225.134614471146
 21
347.9891494741823
 31
0.0
 11
224.5765142807358
 21
347.9000001546828
 31
0.0
  0
LWPOLYLINE
  5
1671
100
AcDbEntity
  8
VHH-025
100
AcDbPolyline
 90
        6
 70
     0
 43
0.0
 10
201.377303
 20
345.522402
 10
201.460659
 20
345.90028
 10
201.681236
 20
346.21822
 10
202.006004
 20
346.428614
 10
202.375504
 20
346.499999
 10
202.377052
 20
346.5
  0
LINE
  5
1672
100
AcDbEntity
  8
VHH-025
100
AcDbLine
 10
218.074027
 20
347.9
 30
0.0
 11
194.490074
 21
347.9
 31
0.0
  0
LINE
  5
1673
100
AcDbEntity
  8
VHH-025
100
AcDbLine
 10
233.585646
 20
358.2
 30
0.0
 11
232.507546
 21
349.479886
 31
0.0
  0
LINE
  5
1674
100
AcDbEntity
  8
VHH-025
100
AcDbLine
 10
226.954375
 20
358.2
 30
0.0
 11
226.542006
 21
349.60786
 31
0.0
  0
LINE
  5
1675
100
AcDbEntity
  8
VHH-025
100
AcDbLine
 10
214.039948
 20
345.9
 30
0.0
 11
204.288476
 21
345.9
 31
0.0
  0
LINE
  5
1676
100
AcDbEntity
  8
VHH-025
100
AcDbLine
 10
204.288476
 20
344.9
 30
0.0
 11
213.039948
 21
344.9
 31
0.0
  0
LINE
  5
1677
100
AcDbEntity
  8
VHH-025
100
AcDbLine
 10
204.288476
 20
344.3
 30
0.0
 11
213.288476
 21
344.3
 31
0.0
  0
LINE
  5
1678
100
AcDbEntity
  8
VHH-025
100
AcDbLine
 10
217.688476
 20
345.9
 30
0.0
 11
214.039948
 21
345.9
 31
0.0
  0
LINE
  5
1679
100
AcDbEntity
  8
VHH-025
100
AcDbLine
 10
213.288476
 20
344.3
 30
0.0
 11
214.288476
 21
345.3
 31
0.0
  0
LINE
  5
167A
100
AcDbEntity
  8
VHH-025
100
AcDbLine
 10
214.288476
 20
345.3
 30
0.0
 11
217.688476
 21
345.3
 31
0.0
  0
LINE
  5
167B
100
AcDbEntity
  8
VHH-025
100
AcDbLine
 10
213.039948
 20
344.9
 30
0.0
 11
214.039948
 21
345.9
 31
0.0
  0
LINE
  5
167C
100
AcDbEntity
  8
VHH-025
100
AcDbLine
 10
204.288476
 20
344.9
 30
0.0
 11
204.288476
 21
344.3
 31
0.0
  0
LINE
  5
167D
100
AcDbEntity
  8
VHH-025
100
AcDbLine
 10
204.288476
 20
345.9
 30
0.0
 11
204.288476
 21
344.9
 31
0.0
  0
LINE
  5
167E
100
AcDbEntity
  8
VHH-025
100
AcDbLine
 10
209.524017
 20
346.5
 30
0.0
 11
209.524017
 21
347.1
 31
0.0
  0
LINE
  5
167F
100
AcDbEntity
  8
VHH-025
100
AcDbLine
 10
218.910287
 20
347.9
 30
0.0
 11
218.506642
 21
347.9
 31
0.0
  0
LINE
  5
1680
100
AcDbEntity
  8
VHH-025
100
AcDbLine
 10
219.100214
 20
347.9
 30
0.0
 11
218.910287
 21
347.9
 31
0.0
  0
LINE
  5
1681
100
AcDbEntity
  8
VHH-025
100
AcDbLine
 10
219.278245
 20
347.9
 30
0.0
 11
219.100214
 21
347.9
 31
0.0
  0
LINE
  5
1682
100
AcDbEntity
  8
VHH-025
100
AcDbLine
 10
219.598054
 20
347.9
 30
0.0
 11
219.278245
 21
347.9
 31
0.0
  0
LINE
  5
1683
100
AcDbEntity
  8
VHH-025
100
AcDbLine
 10
219.670413
 20
347.9
 30
0.0
 11
219.598054
 21
347.9
 31
0.0
  0
LINE
  5
1684
100
AcDbEntity
  8
VHH-025
100
AcDbLine
 10
219.739609
 20
347.9
 30
0.0
 11
219.670413
 21
347.9
 31
0.0
  0
LINE
  5
1685
100
AcDbEntity
  8
VHH-025
100
AcDbLine
 10
219.866389
 20
347.9
 30
0.0
 11
219.739609
 21
347.9
 31
0.0
  0
LINE
  5
1686
100
AcDbEntity
  8
VHH-025
100
AcDbLine
 10
218.506642
 20
347.9
 30
0.0
 11
218.074027
 21
347.9
 31
0.0
  0
ARC
  5
1687
100
AcDbEntity
  8
VHH-025
100
AcDbCircle
 10
217.688476
 20
346.9
 30
0.0
 40
1.6
100
AcDbArc
 50
270.0
 51
38.682187
  0
ARC
  5
1688
100
AcDbEntity
  8
VHH-025
100
AcDbCircle
 10
217.688476
 20
346.9
 30
0.0
 40
1.0
100
AcDbArc
 50
270.0
 51
90.0
  0
LINE
  5
1689
100
AcDbEntity
  8
VHH-025
100
AcDbLine
 10
231.444423
 20
359.2
 30
0.0
 11
231.585197
 21
358.2
 31
0.0
  0
SPLINE
  5
168A
100
AcDbEntity
  8
VHH-025
100
AcDbSpline
210
0.0
220
0.0
230
1.0
 70
     8
 71
     3
 72
    11
 73
     7
 74
     5
 42
0.0000001
 43
0.0000001
 44
0.0000000001
 40
0.0
 40
0.0
 40
0.0
 40
0.0
 40
2.439326604699221
 40
9.559659611393655
 40
15.47915361148254
 40
15.77071151036985
 40
15.77071151036985
 40
15.77071151036985
 40
15.77071151036985
 10
247.19652469034
 20
341.9553123135147
 30
0.0
 10
247.2954539086137
 20
342.7625529932154
 30
0.0
 10
247.6831550268219
 20
345.926108913748
 30
0.0
 10
247.8486980644559
 20
351.0905796447771
 30
0.0
 10
247.8914139614157
 20
355.5344828812903
 30
0.0
 10
247.8265111769636
 20
357.6038408261469
 30
0.0
 10
247.8234645240336
 20
357.7009801938838
 30
0.0
 11
247.19652469034
 21
341.9553123135147
 31
0.0
 11
247.4747254317498
 21
344.3787228507271
 31
0.0
 11
247.8324176145379
 21
351.4900657920143
 31
0.0
 11
247.8324176145379
 21
357.4095597921032
 31
0.0
 11
247.8234645240336
 21
357.7009801938838
 31
0.0
  0
SPLINE
  5
168B
100
AcDbEntity
  8
VHH-025
100
AcDbSpline
210
0.0
220
0.0
230
-1.0
 70
     8
 71
     3
 72
    13
 73
     9
 74
     7
 42
0.0000001
 43
0.0000001
 44
0.0000000001
 40
0.0
 40
0.0
 40
0.0
 40
0.0
 40
6.026680851532884
 40
11.00810038444558
 40
13.94509459379618
 40
15.5249076926455
 40
17.0649779664407
 40
19.47261726715507
 40
19.47261726715507
 40
19.47261726715507
 40
19.47261726715507
 10
241.2022302504792
 20
357.6885687225385
 30
0.0
 10
241.3058524458391
 20
355.6783244264755
 30
0.0
 10
241.4951247097401
 20
352.0064905342438
 30
0.0
 10
242.4348239970878
 20
347.451856828256
 30
0.0
 10
243.4172425787957
 20
344.4042488626192
 30
0.0
 10
244.5552312180075
 20
342.7277519215181
 30
0.0
 10
245.9881128047652
 20
341.4631596216605
 30
0.0
 10
246.1139200348501
 20
340.0879001610812
 30
0.0
 10
246.1906476729272
 20
339.2491533729817
 30
0.0
 11
241.2022302504792
 21
357.6885687225385
 31
0.0
 11
241.6787029216957
 21
351.6807524903442
 31
0.0
 11
242.6855494711799
 21
346.8021460716345
 31
0.0
 11
243.7188996022614
 21
344.0529420973262
 31
0.0
 11
244.6197704321839
 21
342.7551589201002
 31
0.0
 11
245.6266169816717
 21
341.589793537908
 31
0.0
 11
246.1906476729272
 21
339.2491533729817
 31
0.0
  0
SPLINE
  5
168C
100
AcDbEntity
  8
VHH-025
100
AcDbSpline
210
0.0
220
0.0
230
1.0
 70
     8
 71
     3
 72
    13
 73
     9
 74
     7
 42
0.0000001
 43
0.0000001
 44
0.0000000001
 40
0.0
 40
0.0
 40
0.0
 40
0.0
 40
5.157331242128586
 40
11.03348381863846
 40
14.61916662718586
 40
16.78242660352464
 40
17.89174384221464
 40
18.52503597702231
 40
18.52503597702231
 40
18.52503597702231
 40
18.52503597702231
 10
247.8532033287265
 20
359.2000001114847
 30
0.0
 10
247.942219109422
 20
360.916978077887
 30
0.0
 10
248.1326575609771
 20
364.5902439046983
 30
0.0
 10
248.2614414905163
 20
369.4602549082202
 30
0.0
 10
248.2825642778468
 20
373.339990012548
 30
0.0
 10
248.0370489945332
 20
375.6167616270021
 30
0.0
 10
247.7589520239249
 20
376.8932364663035
 30
0.0
 10
247.5551351322542
 20
377.4376587941433
 30
0.0
 10
247.4810648119637
 20
377.6355105809398
 30
0.0
 11
247.8532033287265
 21
359.2000001114847
 31
0.0
 11
248.099878610974
 21
364.3514287333491
 31
0.0
 11
248.2561019177228
 21
370.2255042674951
 31
0.0
 11
248.2010243476252
 21
373.8107640439666
 31
0.0
 11
247.9486966041767
 21
375.9592575708629
 31
0.0
 11
247.6927439513819
 21
377.0386430328653
 31
0.0
 11
247.4810648119637
 21
377.6355105809398
 31
0.0
  0
SPLINE
  5
168D
100
AcDbEntity
  8
VHH-025
100
AcDbSpline
210
0.0
220
0.0
230
-1.0
 70
     8
 71
     3
 72
    17
 73
    13
 74
    11
 42
0.0000001
 43
0.0000001
 44
0.0000000001
 40
0.0
 40
0.0
 40
0.0
 40
0.0
 40
0.5545798661035835
 40
1.653562178450133
 40
2.750923934510121
 40
3.848571212510946
 40
4.674193321130565
 40
5.488636099265541
 40
8.524172564826123
 40
12.84394436805994
 40
16.51294489443545
 40
20.18194542081121
 40
20.18194542081121
 40
20.18194542081121
 40
20.18194542081121
 10
247.2087657800093
 20
378.0853574984503
 30
0.0
 10
247.1808559745746
 20
377.9026698175621
 30
0.0
 10
247.0976387474526
 20
377.3579593835031
 30
0.0
 10
246.863307414043
 20
376.4646237353086
 30
0.0
 10
246.3319723142461
 20
375.4910481188919
 30
0.0
 10
245.6629588237588
 20
374.7299702545483
 30
0.0
 10
244.9454536204198
 20
374.1564970038748
 30
0.0
 10
244.0722278300563
 20
372.8443091403947
 30
0.0
 10
243.2577734692649
 20
370.2215989233573
 30
0.0
 10
242.2054204762147
 20
366.6990277768252
 30
0.0
 10
241.7756682728103
 20
362.8252619162196
 30
0.0
 10
241.406426571392
 20
360.4084207388926
 30
0.0
 10
241.2218057206828
 20
359.2000001502292
 30
0.0
 11
247.2087657800093
 21
378.0853574984503
 31
0.0
 11
247.1185530888178
 21
377.5381642069751
 31
0.0
 11
246.8213103810467
 21
376.4801429900198
 31
0.0
 11
246.2990046854138
 21
375.5150525362423
 31
0.0
 11
245.5772760737309
 21
374.688047483065
 31
0.0
 11
244.9738285072125
 21
374.1245735256325
 31
0.0
 11
244.5020457854807
 21
373.4606924351264
 31
0.0
 11
243.3911049077596
 21
370.6357513738021
 31
0.0
 11
242.2801640300385
 21
366.4612767004782
 31
0.0
 11
241.7509848753616
 21
362.8306384253537
 31
0.0
 11
241.2218057206828
 21
359.2000001502292
 31
0.0
  0
SPLINE
  5
168E
100
AcDbEntity
  8
VHH-025
100
AcDbSpline
210
0.0
220
0.0
230
-1.0
 70
     8
 71
     3
 72
    11
 73
     7
 74
     5
 42
0.0000001
 43
0.0000001
 44
0.0000000001
 40
0.0
 40
0.0
 40
0.0
 40
0.0
 40
0.2640450802004821
 40
0.4702127551992384
 40
0.7109238314947751
 40
0.9626525607727637
 40
0.9626525607727637
 40
0.9626525607727637
 40
0.9626525607727637
 10
241.8754332962489
 20
358.2000001475153
 30
0.0
 10
241.7883013828757
 20
358.1986271830218
 30
0.0
 10
241.6331364503503
 20
358.196182201215
 30
0.0
 10
241.3876131194102
 20
358.1451926325194
 30
0.0
 10
241.2588731462905
 20
357.9277118352432
 30
0.0
 10
241.2213907544745
 20
357.7694632901767
 30
0.0
 10
241.2022302504792
 20
357.6885687225385
 30
0.0
 11
241.8754332962489
 21
358.2000001475153
 31
0.0
 11
241.6117586966592
 21
358.1860176617092
 31
0.0
 11
241.4148639171453
 21
358.1248821072867
 31
0.0
 11
241.2736304986119
 21
357.9299591898534
 31
0.0
 11
241.2022302504792
 21
357.6885687225385
 31
0.0
  0
SPLINE
  5
168F
100
AcDbEntity
  8
VHH-025
100
AcDbSpline
210
0.0
220
0.0
230
1.0
 70
     8
 71
     3
 72
    20
 73
    16
 74
     0
 42
0.0000001
 43
0.0000001
 40
0.0
 40
0.0
 40
0.0
 40
0.0
 40
0.3918367249981683
 40
0.3918367249981683
 40
0.6525501684806338
 40
0.6525501684806338
 40
1.182440120300543
 40
1.182440120300543
 40
1.712330072120452
 40
1.712330072120452
 40
2.006270928035041
 40
2.006270928035041
 40
2.315289501487082
 40
2.315289501487082
 40
2.616402084268149
 40
2.616402084268149
 40
2.616402084268149
 40
2.616402084268149
 10
296.4969883306421
 20
389.6448793183244
 30
0.0
 10
296.6275856886823
 20
389.6652047948719
 30
0.0
 10
296.7397677273547
 20
389.6834693973924
 30
0.0
 10
296.8893811916204
 20
389.7193358176973
 30
0.0
 10
296.9390874371892
 20
389.7348291204525
 30
0.0
 10
297.0619038940967
 20
389.7841206296579
 30
0.0
 10
297.1465076953063
 20
389.8366299244717
 30
0.0
 10
297.3072484018648
 20
389.9782206218096
 30
0.0
 10
297.3805358427725
 20
390.0656042831997
 30
0.0
 10
297.4649591375291
 20
390.2052175410244
 30
0.0
 10
297.4896213286519
 20
390.255966609835
 30
0.0
 10
297.5281133359676
 20
390.3581088020219
 30
0.0
 10
297.5408245534436
 20
390.4062883098104
 30
0.0
 10
297.565285232944
 20
390.5462616220848
 30
0.0
 10
297.5751091115198
 20
390.6317513268877
 30
0.0
 10
297.5860570070035
 20
390.7320804753016
 30
0.0
  0
SPLINE
  5
1690
100
AcDbEntity
  8
VHH-025
100
AcDbSpline
210
0.0
220
0.0
230
1.0
 70
     8
 71
     3
 72
    11
 73
     7
 74
     5
 42
0.0000001
 43
0.0000001
 44
0.0000000001
 40
0.0
 40
0.0
 40
0.0
 40
0.0
 40
0.6629926957075539
 40
1.32453957735364
 40
2.13516094477428
 40
2.61640208426756
 40
2.61640208426756
 40
2.61640208426756
 40
2.61640208426756
 10
296.6046366623231
 20
388.9532061030804
 30
0.0
 10
296.825609044275
 20
388.9875970665308
 30
0.0
 10
297.2670719250764
 20
389.0563039957146
 30
0.0
 10
297.8653540495114
 20
389.4821643961871
 30
0.0
 10
298.2174596011512
 20
390.0653584337169
 30
0.0
 10
298.2644293277981
 20
390.4958003102702
 30
0.0
 10
298.2819263637848
 20
390.6561473580786
 30
0.0
 11
296.6046366623231
 21
388.9532061030804
 31
0.0
 11
297.2499352399827
 21
389.1053542553272
 31
0.0
 11
297.7938688094127
 21
389.4818918346773
 31
0.0
 11
298.2036393473681
 21
390.1813166752017
 31
0.0
 11
298.2819263637848
 21
390.6561473580786
 31
0.0
  0
SPLINE
  5
1691
100
AcDbEntity
  8
VHH-025
100
AcDbSpline
210
0.0
220
0.0
230
1.0
 70
     8
 71
     3
 72
    12
 73
     8
 74
     6
 42
0.0000001
 43
0.0000001
 44
0.0000000001
 40
0.0
 40
0.0
 40
0.0
 40
0.0
 40
0.4301022247147126
 40
0.8434719887054397
 40
1.254524939527387
 40
1.659116521511447
 40
1.863361491888841
 40
1.863361491888841
 40
1.863361491888841
 40
1.863361491888841
 10
286.6437764844558
 20
393.1033544413385
 30
0.0
 10
286.7862983531937
 20
393.1217674132389
 30
0.0
 10
287.0657974981655
 20
393.1578770288938
 30
0.0
 10
287.4582426635857
 20
393.3250705673636
 30
0.0
 10
287.7541399119639
 20
393.6260807858609
 30
0.0
 10
287.8782799847631
 20
393.9503294105009
 30
0.0
 10
287.9133135745038
 20
394.1501079148765
 30
0.0
 10
287.9250662106933
 20
394.2171271412189
 30
0.0
 11
286.6437764844558
 21
393.1033544413385
 31
0.0
 11
287.0672751371967
 21
393.1784331655635
 31
0.0
 11
287.4440310388345
 21
393.3485200620689
 31
0.0
 11
287.7310357257974
 21
393.6427866725443
 31
0.0
 11
287.8854110303927
 21
394.0167687757839
 31
0.0
 11
287.9250662106933
 21
394.2171271412189
 31
0.0
  0
SPLINE
  5
1692
100
AcDbEntity
  8
VHH-025
100
AcDbSpline
210
0.0
220
0.0
230
1.0
 70
     8
 71
     3
 72
    12
 73
     8
 74
     6
 42
0.0000001
 43
0.0000001
 44
0.0000000001
 40
0.0
 40
0.0
 40
0.0
 40
0.0
 40
0.6333227639757436
 40
1.258591262608694
 40
1.575282577616266
 40
2.21249333571791
 40
2.538190609334158
 40
2.538190609334158
 40
2.538190609334158
 40
2.538190609334158
 10
272.6364232687483
 20
389.3419913231118
 30
0.0
 10
272.6622712751567
 20
389.1295174019111
 30
0.0
 10
272.7136385666423
 20
388.7072716909299
 30
0.0
 10
273.0432702968584
 20
388.2669763418809
 30
0.0
 10
273.466630100015
 20
387.9539308137674
 30
0.0
 10
273.8845174868259
 20
387.8053710274952
 30
0.0
 10
274.2060798023302
 20
387.806573761412
 30
0.0
 10
274.3148461289238
 20
387.8069805782051
 30
0.0
 11
272.6364232687483
 21
389.3419913231118
 31
0.0
 11
272.7676467868405
 21
388.7224123437481
 31
0.0
 11
273.132261362105
 21
388.2144586973518
 31
0.0
 11
273.3868513558736
 21
388.0261044458093
 31
0.0
 11
273.989359329631
 21
387.8186877352982
 31
0.0
 11
274.3148461289238
 21
387.8069805782051
 31
0.0
  0
SPLINE
  5
1693
100
AcDbEntity
  8
VHH-025
100
AcDbSpline
210
0.0
220
0.0
230
-1.0
 70
     8
 71
     3
 72
    14
 73
    10
 74
     8
 42
0.0000001
 43
0.0000001
 44
0.0000000001
 40
0.0
 40
0.0
 40
0.0
 40
0.0
 40
0.2461636398482209
 40
0.4473543715030667
 40
0.8348519280356681
 40
1.027990166881008
 40
1.250840234265143
 40
1.448371555080254
 40
1.702783789880094
 40
1.702783789880094
 40
1.702783789880094
 40
1.702783789880094
 10
273.9643885829682
 20
393.6545248284601
 30
0.0
 10
273.9642124769686
 20
393.5722304303881
 30
0.0
 10
273.9638924386852
 20
393.4226764233446
 30
0.0
 10
274.0252862865214
 20
393.1491511673846
 30
0.0
 10
274.1285165504897
 20
392.9103981620156
 30
0.0
 10
274.2632687712311
 20
392.6727114014295
 30
0.0
 10
274.4429628356802
 20
392.5639873895169
 30
0.0
 10
274.6487386372372
 20
392.4698163598691
 30
0.0
 10
274.8006979637263
 20
392.4596876389555
 30
0.0
 10
274.8862403093808
 20
392.453985885957
 30
0.0
 11
273.9643885829682
 21
393.6545248284601
 31
0.0
 11
273.9739183668752
 21
393.4085457220262
 31
0.0
 11
274.0156078629934
 21
393.2117216980423
 31
0.0
 11
274.1634041828056
 21
392.8535170021368
 31
0.0
 11
274.2695110064996
 21
392.6921363302153
 31
0.0
 11
274.451802677253
 21
392.5639493601011
 31
0.0
 11
274.6340943480081
 21
392.4878680254896
 31
0.0
 11
274.8862403093808
 21
392.453985885957
 31
0.0
  0
LINE
  5
1694
100
AcDbEntity
  8
VHH-025
100
AcDbLine
 10
286.643776
 20
393.103354
 30
0.0
 11
274.88624
 21
392.453986
 31
0.0
  0
LINE
  5
1695
100
AcDbEntity
  8
VHH-025
100
AcDbLine
 10
296.604637
 20
388.953206
 30
0.0
 11
274.314846
 21
387.806981
 31
0.0
  0
LINE
  5
1696
100
AcDbEntity
  8
VHH-025
100
AcDbLine
 10
289.128677
 20
390.333586
 30
0.0
 11
275.001296
 21
389.569907
 31
0.0
  0
LINE
  5
1697
100
AcDbEntity
  8
VHH-025
100
AcDbLine
 10
274.474309
 20
390.070754
 30
0.0
 11
274.481195
 21
392.255703
 31
0.0
  0
LINE
  5
1698
100
AcDbEntity
  8
VHH-025
100
AcDbLine
 10
274.171451
 20
392.838215
 30
0.0
 11
275.883966
 21
389.617621
 31
0.0
  0
LINE
  5
1699
100
AcDbEntity
  8
VHH-025
100
AcDbLine
 10
287.984903
 20
392.692136
 30
0.0
 11
289.215686
 21
390.33829
 31
0.0
  0
ARC
  5
169A
100
AcDbEntity
  8
VHH-025
100
AcDbCircle
 10
289.101688
 20
390.832858
 30
0.0
 40
0.5
100
AcDbArc
 50
273.09421
 51
359.745727
  0
LINE
  5
169B
100
AcDbEntity
  8
VHH-025
100
AcDbLine
 10
296.568688
 20
389.652282
 30
0.0
 11
291.663726
 21
389.400051
 31
0.0
  0
SPLINE
  5
169C
100
AcDbEntity
  8
VHH-025
100
AcDbSpline
210
0.0
220
0.0
230
1.0
 70
     8
 71
     3
 72
    12
 73
     8
 74
     6
 42
0.0000001
 43
0.0000001
 44
0.0000000001
 40
0.0
 40
0.0
 40
0.0
 40
0.0
 40
1.006217164968555
 40
1.679832645747035
 40
2.564456909785589
 40
3.472698377669629
 40
4.209033191012977
 40
4.209033191012977
 40
4.209033191012977
 40
4.209033191012977
 10
338.5829464615436
 20
378.7082166641557
 30
0.0
 10
338.935798206265
 20
378.6994300335588
 30
0.0
 10
339.5248677436649
 20
378.6847611634218
 30
0.0
 10
340.1183871366436
 20
377.9352203537973
 30
0.0
 10
339.9172246611545
 20
377.0334711668575
 30
0.0
 10
339.2097775389759
 20
376.461686391705
 30
0.0
 10
338.6546219144946
 20
376.4225537599331
 30
0.0
 10
338.4060591583639
 20
376.4050327002896
 30
0.0
 11
338.5829464615436
 21
378.7082166641557
 31
0.0
 11
339.5696384962813
 21
378.5109558934418
 31
0.0
 11
339.9784061344508
 21
377.9755431237681
 31
0.0
 11
339.8326597950728
 21
377.1030076843253
 31
0.0
 11
339.1326733427924
 21
376.5242836303859
 31
0.0
 11
338.4060591583639
 21
376.4050327002896
 31
0.0
  0
SPLINE
  5
169D
100
AcDbEntity
  8
VHH-025
100
AcDbSpline
210
0.0
220
0.0
230
-1.0
 70
     8
 71
     3
 72
    12
 73
     8
 74
     6
 42
0.0000001
 43
0.0000001
 44
0.0000000001
 40
0.0
 40
0.0
 40
0.0
 40
0.0
 40
1.411106911324726
 40
2.125038086019788
 40
2.805834388314495
 40
3.535044224461822
 40
4.326784235138477
 40
4.326784235138477
 40
4.326784235138477
 40
4.326784235138477
 10
338.1663757730131
 20
378.7082166641557
 30
0.0
 10
338.6425651122391
 20
378.7172704845925
 30
0.0
 10
339.3596762495249
 20
378.730904967634
 30
0.0
 10
340.2053179968869
 20
379.3087114544627
 30
0.0
 10
340.205915908564
 20
380.1470776302658
 30
0.0
 10
339.5151050640908
 20
380.5965319568329
 30
0.0
 10
339.0058081776909
 20
380.6007422726429
 30
0.0
 10
338.7406904796172
 20
380.6029339790238
 30
0.0
 11
338.1663757730131
 21
378.7082166641557
 31
0.0
 11
339.5611441081256
 21
378.9223287996264
 31
0.0
 11
340.1052666198703
 21
379.3845283392347
 31
0.0
 11
340.1026749337107
 21
380.0653197084375
 31
0.0
 11
339.5273478900054
 21
380.5133663331489
 31
0.0
 11
338.7406904796172
 21
380.6029339790238
 31
0.0
  0
SPLINE
  5
169E
100
AcDbEntity
  8
VHH-025
100
AcDbSpline
210
0.0
220
0.0
230
-1.0
 70
     8
 71
     3
 72
    12
 73
     8
 74
     6
 42
0.0000001
 43
0.0000001
 44
0.0000000001
 40
0.0
 40
0.0
 40
0.0
 40
0.0
 40
1.411106911326524
 40
2.125038086022972
 40
2.805834388317692
 40
3.53504422446215
 40
4.326784235140611
 40
4.326784235140611
 40
4.326784235140611
 40
4.326784235140611
 10
339.4852998892567
 20
385.0603060096109
 30
0.0
 10
339.9614892284828
 20
385.0693598300479
 30
0.0
 10
340.6786003657689
 20
385.0829943130897
 30
0.0
 10
341.5242421131357
 20
385.6608007999172
 30
0.0
 10
341.5248400248058
 20
386.4991669757196
 30
0.0
 10
340.8340291803374
 20
386.9486213022891
 30
0.0
 10
340.3247322939372
 20
386.9528316180984
 30
0.0
 10
340.0596145958626
 20
386.955023324479
 30
0.0
 11
339.4852998892567
 21
385.0603060096109
 31
0.0
 11
340.880068224371
 21
385.2744181450816
 31
0.0
 11
341.4241907361175
 21
385.7366176846899
 31
0.0
 11
341.4215990499543
 21
386.4174090538927
 31
0.0
 11
340.8462720062526
 21
386.865455678604
 31
0.0
 11
340.0596145958626
 21
386.955023324479
 31
0.0
  0
SPLINE
  5
169F
100
AcDbEntity
  8
VHH-025
100
AcDbSpline
210
0.0
220
0.0
230
1.0
 70
     8
 71
     3
 72
    12
 73
     8
 74
     6
 42
0.0000001
 43
0.0000001
 44
0.0000000001
 40
0.0
 40
0.0
 40
0.0
 40
0.0
 40
1.006217164968555
 40
1.679832645748139
 40
2.564456909786993
 40
3.472698377671032
 40
4.209033191014381
 40
4.209033191014381
 40
4.209033191014381
 40
4.209033191014381
 10
339.901870577789
 20
385.0603060096109
 30
0.0
 10
340.25472232251
 20
385.0515193790138
 30
0.0
 10
340.8437918599097
 20
385.0368505088764
 30
0.0
 10
341.4373112528918
 20
384.287309699253
 30
0.0
 10
341.2361487773992
 20
383.3855605123129
 30
0.0
 10
340.5287016552213
 20
382.8137757371602
 30
0.0
 10
339.97354603074
 20
382.7746431053882
 30
0.0
 10
339.7249832746093
 20
382.7571220457448
 30
0.0
 11
339.901870577789
 21
385.0603060096109
 31
0.0
 11
340.8885626125266
 21
384.863045238897
 31
0.0
 11
341.2973302506981
 21
384.3276324692233
 31
0.0
 11
341.1515839113182
 21
383.4550970297805
 31
0.0
 11
340.4515974590377
 21
382.8763729758411
 31
0.0
 11
339.7249832746093
 21
382.7571220457448
 31
0.0
  0
SPLINE
  5
16A0
100
AcDbEntity
  8
VHH-025
100
AcDbSpline
210
0.0
220
0.0
230
1.0
 70
    11
 71
     3
 72
    15
 73
    11
 74
     9
 42
0.0000001
 43
0.0000001
 44
0.0000000001
 40
0.0
 40
0.0
 40
0.0
 40
0.0
 40
0.5147647394070095
 40
2.457789820816696
 40
3.94443464699836
 40
5.591791425460045
 40
7.10451629126376
 40
9.337163693807564
 40
10.73578930127757
 40
12.20445453441462
 40
12.20445453441462
 40
12.20445453441462
 40
12.20445453441462
 10
341.9457257687501
 20
379.0242162485228
 30
0.0
 10
342.0100266601764
 20
379.1825929530062
 30
0.0
 10
342.317036958899
 20
379.9387765497736
 30
0.0
 10
343.5702648447689
 20
380.9030339837365
 30
0.0
 10
345.4083739780033
 20
380.1774958629286
 30
0.0
 10
345.7414227927273
 20
378.4474845534908
 30
0.0
 10
344.9801087792308
 20
376.7484929961649
 30
0.0
 10
342.8912125993308
 20
376.0077180773025
 30
0.0
 10
341.6031625484688
 20
377.5563404946079
 30
0.0
 10
341.8296935296725
 20
378.5270206935692
 30
0.0
 10
341.9457257687501
 20
379.0242162485228
 30
0.0
 11
341.9457257687501
 21
379.0242162485228
 31
0.0
 11
342.1594156661122
 21
379.4925317027864
 31
0.0
 11
343.7640575041915
 21
380.5881917953665
 31
0.0
 11
345.1454184194409
 21
380.0386875997192
 31
0.0
 11
345.5682848152684
 21
378.4465292009335
 31
0.0
 11
344.9198892972164
 21
377.079810586225
 31
0.0
 11
342.7632723784955
 21
376.5021273772144
 31
0.0
 11
341.847057131945
 21
377.5588691677476
 31
0.0
 11
341.9457257687501
 21
379.0242162485228
 31
0.0
  0
SPLINE
  5
16A1
100
AcDbEntity
  8
VHH-025
100
AcDbSpline
210
0.0
220
0.0
230
1.0
 70
     8
 71
     3
 72
    12
 73
     8
 74
     0
 42
0.0000001
 43
0.0000001
 40
1.820596868471746
 40
1.820596868471746
 40
1.820596868471746
 40
1.820596868471746
 40
4.503295473557569
 40
6.216955522489968
 40
7.774552440697402
 40
9.232972112989187
 40
10.8164521343443
 40
10.8164521343443
 40
10.8164521343443
 40
10.8164521343443
 10
344.7858432955582
 20
384.6333369542244
 30
0.0
 10
345.2486637615657
 20
384.6479974493231
 30
0.0
 10
345.9606488907776
 20
384.7817068106942
 30
0.0
 10
346.6697402967476
 20
385.5649230906037
 30
0.0
 10
346.723173827064
 20
386.4671833980137
 30
0.0
 10
346.0013348861867
 20
386.9518270163971
 30
0.0
 10
345.4920767865479
 20
386.9539290813463
 30
0.0
 10
345.2269792791631
 20
386.955023324479
 30
0.0
  0
SPLINE
  5
16A2
100
AcDbEntity
  8
VHH-025
100
AcDbSpline
210
0.0
220
0.0
230
1.0
 70
     8
 71
     3
 72
    12
 73
     8
 74
     0
 42
0.0000001
 43
0.0000001
 40
0.3004138362153372
 40
0.3004138362153372
 40
0.3004138362153372
 40
0.3004138362153372
 40
0.6531836346659445
 40
2.201425060069765
 40
3.775834883110177
 40
5.170639203720888
 40
5.549375987942882
 40
5.549375987942882
 40
5.549375987942882
 40
5.549375987942882
 10
346.0040999267222
 20
382.7571220457448
 30
0.0
 10
345.9941856379374
 20
382.8152425106727
 30
0.0
 10
345.9469749908422
 20
383.1276352444983
 30
0.0
 10
345.9938069607234
 20
383.6814488339277
 30
0.0
 10
345.8518766581765
 20
384.5627740513155
 30
0.0
 10
345.2157403551901
 20
384.6342724435162
 30
0.0
 10
344.9073174060105
 20
384.6320828407933
 30
0.0
 10
344.7858432955582
 20
384.6333369542244
 30
0.0
  0
LINE
  5
16A3
100
AcDbEntity
  8
VHH-025
100
AcDbLine
 10
338.249395
 20
385.060306
 30
0.0
 11
339.901871
 21
385.060306
 31
0.0
  0
LINE
  5
16A4
100
AcDbEntity
  8
VHH-025
100
AcDbLine
 10
336.93047
 20
378.708217
 30
0.0
 11
338.582946
 21
378.708217
 31
0.0
  0
LINE
  5
16A5
100
AcDbEntity
  8
VHH-025
100
AcDbLine
 10
336.452246
 20
376.405033
 30
0.0
 11
338.406059
 21
376.405033
 31
0.0
  0
LINE
  5
16A6
100
AcDbEntity
  8
VHH-025
100
AcDbLine
 10
337.323882
 20
380.602934
 30
0.0
 11
338.74069
 21
380.602934
 31
0.0
  0
LINE
  5
16A7
100
AcDbEntity
  8
VHH-025
100
AcDbLine
 10
337.323882
 20
380.602934
 30
0.0
 11
336.452246
 21
376.405033
 31
0.0
  0
LINE
  5
16A8
100
AcDbEntity
  8
VHH-025
100
AcDbLine
 10
338.642806
 20
386.955023
 30
0.0
 11
337.77117
 21
382.757122
 31
0.0
  0
LINE
  5
16A9
100
AcDbEntity
  8
VHH-025
100
AcDbLine
 10
337.77117
 20
382.757122
 30
0.0
 11
339.724983
 21
382.757122
 31
0.0
  0
LINE
  5
16AA
100
AcDbEntity
  8
VHH-025
100
AcDbLine
 10
336.212421
 20
387.455023
 30
0.0
 11
333.814225
 21
375.905033
 31
0.0
  0
LINE
  5
16AB
100
AcDbEntity
  8
VHH-025
100
AcDbLine
 10
343.268895
 20
384.633337
 30
0.0
 11
344.785843
 21
384.633337
 31
0.0
  0
LINE
  5
16AC
100
AcDbEntity
  8
VHH-025
100
AcDbLine
 10
342.879324
 20
382.757122
 30
0.0
 11
343.750961
 21
386.955023
 31
0.0
  0
LINE
  5
16AD
100
AcDbEntity
  8
VHH-025
100
AcDbLine
 10
338.642806
 20
386.955023
 30
0.0
 11
340.059615
 21
386.955023
 31
0.0
  0
LINE
  5
16AE
100
AcDbEntity
  8
VHH-025
100
AcDbLine
 10
343.750961
 20
386.955023
 30
0.0
 11
345.226979
 21
386.955023
 31
0.0
  0
LINE
  5
16AF
100
AcDbEntity
  8
VHH-025
100
AcDbLine
 10
331.104267
 20
387.455023
 30
0.0
 11
328.706071
 21
375.905033
 31
0.0
  0
LINE
  5
16B0
100
AcDbEntity
  8
VHH-025
100
AcDbLine
 10
329.139592
 20
387.455023
 30
0.0
 11
326.741396
 21
375.905033
 31
0.0
  0
LINE
  5
16B1
100
AcDbEntity
  8
VHH-025
100
AcDbLine
 10
333.461877
 20
387.455023
 30
0.0
 11
331.063681
 21
375.905033
 31
0.0
  0
SPLINE
  5
16B2
100
AcDbEntity
  8
VHH-025
100
AcDbSpline
210
0.0
220
0.0
230
-1.0
 70
     8
 71
     3
 72
    15
 73
    11
 74
     9
 42
0.0000001
 43
0.0000001
 44
0.0000000001
 40
0.0
 40
0.0
 40
0.0
 40
0.0
 40
8.727930916722135
 40
16.25763323255752
 40
20.36216076943179
 40
21.62307303412678
 40
23.6954954338632
 40
25.38624445710556
 40
45.7228146340882
 40
79.43205808846968
 40
79.43205808846968
 40
79.43205808846968
 40
79.43205808846968
 10
247.2558966372944
 20
421.7000001546839
 30
0.0
 10
247.9546751943566
 20
424.5165902787401
 30
0.0
 10
249.2562993249653
 20
429.7630902384975
 30
0.0
 10
251.1863862819682
 20
436.357166517708
 30
0.0
 10
253.4928049599533
 20
439.9812058379047
 30
0.0
 10
255.0310587788843
 20
441.9824605104726
 30
0.0
 10
256.7208063521277
 20
442.520561818944
 30
0.0
 10
264.6568290711671
 20
443.3052661239011
 30
0.0
 10
283.2177515608062
 20
445.221637583763
 30
0.0
 10
301.1858378744629
 20
446.2672750766858
 30
0.0
 10
312.3928223800103
 20
446.9194560033047
 30
0.0
 11
247.2558966372944
 21
421.7000001546839
 31
0.0
 11
249.4212305260753
 21
430.1550641542744
 31
0.0
 11
251.9207526212594
 21
437.2577964638003
 31
0.0
 11
254.0891878613856
 21
440.7427691911452
 31
0.0
 11
254.9250021339539
 21
441.6868635937499
 31
0.0
 11
256.8411504954419
 21
442.476363473228
 31
0.0
 11
258.5172591333285
 21
442.6983817013024
 31
0.0
 11
278.760277134992
 21
444.6467935539821
 31
0.0
 11
312.3928223800103
 21
446.9194560033047
 31
0.0
  0
LINE
  5
16B3
100
AcDbEntity
  8
VHH-025
100
AcDbLine
 10
237.390651
 20
421.7
 30
0.0
 11
227.525402
 21
421.7
 31
0.0
  0
LINE
  5
16B4
100
AcDbEntity
  8
VHH-025
100
AcDbLine
 10
237.390648
 20
421.7
 30
0.0
 11
247.255897
 21
421.7
 31
0.0
  0
SPLINE
  5
16B5
100
AcDbEntity
  8
VHH-025
100
AcDbSpline
210
0.0
220
0.0
230
-1.0
 70
     8
 71
     3
 72
    20
 73
    16
 74
     0
 42
0.0000001
 43
0.0000001
 40
0.0
 40
0.0
 40
0.0
 40
0.0
 40
0.411372432094715
 40
0.411372432094715
 40
0.7549641539760199
 40
0.7549641539760199
 40
1.460265566936419
 40
1.460265566936419
 40
1.780008105651267
 40
1.780008105651267
 40
2.128014443002301
 40
2.128014443002301
 40
2.476020780353334
 40
2.476020780353334
 40
2.570156969732271
 40
2.570156969732271
 40
2.570156969732271
 40
2.570156969732271
 10
296.5768310614257
 20
424.2800127985574
 30
0.0
 10
296.7155522624816
 20
424.2697873846682
 30
0.0
 10
296.8377515057763
 20
424.2601437260491
 30
0.0
 10
297.0254294750247
 20
424.2325845736522
 30
0.0
 10
297.0964688715284
 20
424.2165616940019
 30
0.0
 10
297.2731390203007
 20
424.1578439158929
 30
0.0
 10
297.3702548927067
 20
424.094579382825
 30
0.0
 10
297.4769082406783
 20
423.9755918343962
 30
0.0
 10
297.5055089316701
 20
423.9339537645519
 30
0.0
 10
297.549399112262
 20
423.8489294260579
 30
0.0
 10
297.5619026294007
 20
423.813886601878
 30
0.0
 10
297.5865184209979
 20
423.6890743607
 30
0.0
 10
297.5952221039897
 20
423.6031906175994
 30
0.0
 10
297.6035944912709
 20
423.4677466571975
 30
0.0
 10
297.6052858811072
 20
423.4374127361133
 30
0.0
 10
297.6070526953917
 20
423.4056418385062
 30
0.0
  0
SPLINE
  5
16B6
100
AcDbEntity
  8
VHH-025
100
AcDbSpline
210
0.0
220
0.0
230
-1.0
 70
     8
 71
     3
 72
    11
 73
     7
 74
     5
 42
0.0000001
 43
0.0000001
 44
0.0000000001
 40
0.0
 40
0.0
 40
0.0
 40
0.0
 40
0.8012084873077293
 40
1.355387018410457
 40
1.955784421319347
 40
2.570156969733504
 40
2.570156969733504
 40
2.570156969733504
 40
2.570156969733504
 10
296.6282898347671
 20
424.978118803865
 30
0.0
 10
296.898469834654
 20
424.9582033021069
 30
0.0
 10
297.3555274798011
 20
424.9245126797839
 30
0.0
 10
297.9314924981512
 20
424.5786628649523
 30
0.0
 10
298.271642157448
 20
424.0618438529633
 30
0.0
 10
298.2944418152334
 20
423.651859850073
 30
0.0
 10
298.3059727918116
 20
423.4445095477458
 30
0.0
 11
296.6282898347671
 21
424.978118803865
 31
0.0
 11
297.4185957106819
 21
424.8463930940415
 31
0.0
 11
297.8906954142384
 21
424.5561591983005
 31
0.0
 11
298.2174635345963
 21
424.0524731483274
 31
0.0
 11
298.3059727918116
 21
423.4445095477458
 31
0.0
  0
SPLINE
  5
16B7
100
AcDbEntity
  8
VHH-025
100
AcDbSpline
210
0.0
220
0.0
230
-1.0
 70
     8
 71
     3
 72
    11
 73
     7
 74
     5
 42
0.0000001
 43
0.0000001
 44
0.0000000001
 40
0.0
 40
0.0
 40
0.0
 40
0.0
 40
0.3788822097076336
 40
0.7856242620079092
 40
1.206550869508587
 40
1.477512281567324
 40
1.477512281567324
 40
1.477512281567324
 40
1.477512281567324
 10
288.119842058375
 20
421.9537630751856
 30
0.0
 10
288.2479743014664
 20
421.9545274824946
 30
0.0
 10
288.5136605657959
 20
421.9561125052604
 30
0.0
 10
288.8738951175682
 20
421.7049528597445
 30
0.0
 10
288.9755597242956
 20
421.3335306680014
 30
0.0
 10
288.9779711761173
 20
421.1036668463568
 30
0.0
 10
288.978915563608
 20
421.0136461725869
 30
0.0
 11
288.119842058375
 21
421.9537630751856
 31
0.0
 11
288.4969994195562
 21
421.9176513909296
 31
0.0
 11
288.8284780631675
 21
421.6819375688082
 31
0.0
 11
288.9666325667949
 21
421.2843290401906
 31
0.0
 11
288.978915563608
 21
421.0136461725869
 31
0.0
  0
SPLINE
  5
16B8
100
AcDbEntity
  8
VHH-025
100
AcDbSpline
210
0.0
220
0.0
230
-1.0
 70
     8
 71
     3
 72
    12
 73
     8
 74
     6
 42
0.0000001
 43
0.0000001
 44
0.0000000001
 40
0.0
 40
0.0
 40
0.0
 40
0.0
 40
0.460609787038649
 40
0.8428341308469033
 40
1.231136252853797
 40
1.532631450481511
 40
1.82303237835951
 40
1.82303237835951
 40
1.82303237835951
 40
1.82303237835951
 10
275.0199919971546
 20
420.1202051532491
 30
0.0
 10
275.0304160541924
 20
420.2740984375379
 30
0.0
 10
275.0494902278216
 20
420.5556958246465
 30
0.0
 10
275.2138451887485
 20
420.9431231334717
 30
0.0
 10
275.4891438554861
 20
421.1909754753497
 30
0.0
 10
275.8016347656763
 20
421.3016695026364
 30
0.0
 10
275.9978865347328
 20
421.3243729721427
 30
0.0
 10
276.0941731860148
 20
421.3355119344141
 30
0.0
 11
275.0199919971546
 21
420.1202051532491
 31
0.0
 11
275.079172177926
 21
420.5769973183741
 31
0.0
 11
275.2364129608577
 21
420.9253804195468
 31
0.0
 11
275.5249884673466
 21
421.1851932656681
 31
0.0
 11
275.8071313710552
 21
421.291469961512
 31
0.0
 11
276.0941731860148
 21
421.3355119344141
 31
0.0
  0
SPLINE
  5
16B9
100
AcDbEntity
  8
VHH-025
100
AcDbSpline
210
0.0
220
0.0
230
-1.0
 70
     8
 71
     3
 72
    11
 73
     7
 74
     5
 42
0.0000001
 43
0.0000001
 44
0.0000000001
 40
0.0
 40
0.0
 40
0.0
 40
0.0
 40
0.7911843907099164
 40
1.600893155509612
 40
2.251444458122078
 40
2.582196256358009
 40
2.582196256358009
 40
2.582196256358009
 40
2.582196256358009
 10
272.6033656623986
 20
422.2385176264124
 30
0.0
 10
272.6468261414678
 20
422.5045943193722
 30
0.0
 10
272.7347646603443
 20
423.0429774846641
 30
0.0
 10
273.3054661255429
 20
423.5992969230029
 30
0.0
 10
273.8571995298634
 20
423.8387947754977
 30
0.0
 10
274.176798926666
 20
423.9101023783377
 30
0.0
 10
274.2845210719606
 20
423.9341368666082
 30
0.0
 11
272.6033656623986
 21
422.2385176264124
 31
0.0
 11
272.8113836347547
 21
423.0018663431073
 31
0.0
 11
273.3703125973152
 21
423.5877218701825
 31
0.0
 11
273.9633202659279
 21
423.8552268277016
 31
0.0
 11
274.2845210719606
 21
423.9341368666082
 31
0.0
  0
LINE
  5
16BA
100
AcDbEntity
  8
VHH-025
100
AcDbLine
 10
276.094173
 20
421.335512
 30
0.0
 11
288.119842
 21
421.953763
 31
0.0
  0
LINE
  5
16BB
100
AcDbEntity
  8
VHH-025
100
AcDbLine
 10
275.04861
 20
421.945316
 30
0.0
 11
289.21606
 21
422.642668
 31
0.0
  0
LINE
  5
16BC
100
AcDbEntity
  8
VHH-025
100
AcDbLine
 10
274.284521
 20
423.934137
 30
0.0
 11
296.62829
 21
424.978119
 31
0.0
  0
ARC
  5
16BD
100
AcDbEntity
  8
VHH-025
100
AcDbCircle
 10
275.073192
 20
421.44592
 30
0.0
 40
0.5
100
AcDbArc
 50
92.817949
 51
179.819431
  0
ARC
  5
16BE
100
AcDbEntity
  8
VHH-025
100
AcDbCircle
 10
289.240642
 20
422.143273
 30
0.0
 40
0.5
100
AcDbArc
 50
359.745727
 51
92.817949
  0
LINE
  5
16BF
100
AcDbEntity
  8
VHH-025
100
AcDbLine
 10
291.685989
 20
424.046433
 30
0.0
 11
296.660961
 21
424.278882
 31
0.0
  0
CIRCLE
  5
16C0
100
AcDbEntity
  8
VHH-025
100
AcDbCircle
 10
294.581308
 20
413.754525
 30
0.0
 40
2.21318
  0
CIRCLE
  5
16C1
100
AcDbEntity
  8
VHH-025
100
AcDbCircle
 10
294.581308
 20
413.754525
 30
0.0
 40
1.51318
  0
LINE
  5
16C2
100
AcDbEntity
  8
VHH-025
100
AcDbLine
 10
345.141734
 20
407.751541
 30
0.0
 11
345.141734
 21
417.751541
 31
0.0
  0
CIRCLE
  5
16C3
100
AcDbEntity
  8
VHH-025
100
AcDbCircle
 10
332.391734
 20
412.751541
 30
0.0
 40
0.25
  0
ARC
  5
16C4
100
AcDbEntity
  8
VHH-025
100
AcDbCircle
 10
345.891734
 20
407.751541
 30
0.0
 40
0.75
100
AcDbArc
 50
180.0
 51
270.0
  0
ARC
  5
16C5
100
AcDbEntity
  8
VHH-025
100
AcDbCircle
 10
345.891734
 20
417.751541
 30
0.0
 40
0.75
100
AcDbArc
 50
90.0
 51
180.0
  0
LINE
  5
16C6
100
AcDbEntity
  8
VHH-025
100
AcDbLine
 10
274.53032
 20
407.843345
 30
0.0
 11
274.573194
 21
421.447496
 31
0.0
  0
ELLIPSE
  5
16C7
100
AcDbEntity
  8
VHH-025
100
AcDbEllipse
 10
510.878277
 20
399.652897
 30
0.0
 11
-0.5847090253523675
 21
-3.845560362166452
 31
0.0
210
0.0
220
0.0
230
1.0
 40
0.934504
 41
0.0
 42
6.283185307179586
  0
LWPOLYLINE
  5
16C8
100
AcDbEntity
  8
VHH-025
100
AcDbPolyline
 90
        3
 70
     0
 43
0.0
 10
477.255896
 20
421.7
 10
479.492337
 20
421.7
 10
477.208765
 20
378.085357
  0
LWPOLYLINE
  5
16C9
100
AcDbEntity
  8
VHH-025
100
AcDbPolyline
 90
        3
 70
     0
 43
0.0
 10
457.531939
 20
421.7
 10
455.295497
 20
421.7
 10
457.579069
 20
378.085357
  0
LINE
  5
16CA
100
AcDbEntity
  8
VHH-025
100
AcDbLine
 10
484.377863
 20
440.407869
 30
0.0
 11
482.098342
 21
359.2
 31
0.0
  0
LINE
  5
16CB
100
AcDbEntity
  8
VHH-025
100
AcDbLine
 10
450.409971
 20
440.407869
 30
0.0
 11
452.689493
 21
359.2
 31
0.0
  0
LINE
  5
16CC
100
AcDbEntity
  8
VHH-025
100
AcDbLine
 10
388.895013
 20
440.676283
 30
0.0
 11
388.895013
 21
394.596587
 31
0.0
  0
LINE
  5
16CD
100
AcDbEntity
  8
VHH-025
100
AcDbLine
 10
392.395013
 20
446.919456
 30
0.0
 11
392.395013
 21
379.417767
 31
0.0
  0
LINE
  5
16CE
100
AcDbEntity
  8
VHH-025
100
AcDbLine
 10
521.685988
 20
424.046433
 30
0.0
 11
521.663725
 21
389.400051
 31
0.0
  0
LINE
  5
16CF
100
AcDbEntity
  8
VHH-025
100
AcDbLine
 10
519.740636
 20
422.141054
 30
0.0
 11
519.601682
 21
390.830639
 31
0.0
  0
LINE
  5
16D0
100
AcDbEntity
  8
VHH-025
100
AcDbLine
 10
503.964387
 20
393.654525
 30
0.0
 11
505.019991
 21
420.120205
 31
0.0
  0
LINE
  5
16D1
100
AcDbEntity
  8
VHH-025
100
AcDbLine
 10
502.636422
 20
389.341991
 30
0.0
 11
502.603365
 21
422.238518
 31
0.0
  0
LINE
  5
16D2
100
AcDbEntity
  8
VHH-025
100
AcDbLine
 10
518.978914
 20
421.013646
 30
0.0
 11
517.925065
 21
394.217127
 31
0.0
  0
SPLINE
  5
16D3
100
AcDbEntity
  8
VHH-025
100
AcDbSpline
210
0.0
220
0.0
230
1.0
 70
     8
 71
     3
 72
    12
 73
     8
 74
     0
 42
0.0000001
 43
0.0000001
 40
1.820596868471746
 40
1.820596868471746
 40
1.820596868471746
 40
1.820596868471746
 40
4.503295473557569
 40
6.216955522489968
 40
7.774552440697402
 40
9.232972112989187
 40
10.8164521343443
 40
10.8164521343443
 40
10.8164521343443
 40
10.8164521343443
 10
370.855239546414
 20
384.6333369542244
 30
0.0
 10
371.3180600124216
 20
384.6479974493231
 30
0.0
 10
372.0300451416334
 20
384.7817068106942
 30
0.0
 10
372.7391365476033
 20
385.5649230906037
 30
0.0
 10
372.7925700779197
 20
386.4671833980137
 30
0.0
 10
372.0707311370425
 20
386.9518270163971
 30
0.0
 10
371.5614730374037
 20
386.9539290813463
 30
0.0
 10
371.2963755300189
 20
386.955023324479
 30
0.0
  0
SPLINE
  5
16D4
100
AcDbEntity
  8
VHH-025
100
AcDbSpline
210
0.0
220
0.0
230
1.0
 70
     8
 71
     3
 72
    12
 73
     8
 74
     0
 42
0.0000001
 43
0.0000001
 40
0.3004138362153372
 40
0.3004138362153372
 40
0.3004138362153372
 40
0.3004138362153372
 40
0.6531836346659445
 40
2.201425060069765
 40
3.775834883110177
 40
5.170639203720888
 40
5.549375987942882
 40
5.549375987942882
 40
5.549375987942882
 40
5.549375987942882
 10
372.073496177578
 20
382.7571220457448
 30
0.0
 10
372.0635818887932
 20
382.8152425106727
 30
0.0
 10
372.016371241698
 20
383.1276352444983
 30
0.0
 10
372.0632032115791
 20
383.6814488339277
 30
0.0
 10
371.9212729090323
 20
384.5627740513155
 30
0.0
 10
371.2851366060459
 20
384.6342724435162
 30
0.0
 10
370.9767136568663
 20
384.6320828407933
 30
0.0
 10
370.855239546414
 20
384.6333369542244
 30
0.0
  0
SPLINE
  5
16D5
100
AcDbEntity
  8
VHH-025
100
AcDbSpline
210
0.0
220
0.0
230
1.0
 70
    11
 71
     3
 72
    15
 73
    11
 74
     9
 42
0.0000001
 43
0.0000001
 44
0.0000000001
 40
0.0
 40
0.0
 40
0.0
 40
0.0
 40
0.5147647394070095
 40
2.457789820816696
 40
3.94443464699836
 40
5.591791425460511
 40
7.104516291264225
 40
9.33716369380803
 40
10.73578930127804
 40
12.20445453441497
 40
12.20445453441497
 40
12.20445453441497
 40
12.20445453441497
 10
363.9563231576104
 20
385.3701369677583
 30
0.0
 10
364.0206240490367
 20
385.5285136722416
 30
0.0
 10
364.3276343477594
 20
386.2846972690091
 30
0.0
 10
365.5808622336294
 20
387.2489547029721
 30
0.0
 10
367.4189713668634
 20
386.5234165821638
 30
0.0
 10
367.75202018159
 20
384.7934052727266
 30
0.0
 10
366.9907061680929
 20
383.0944137154002
 30
0.0
 10
364.9018099881927
 20
382.3536387965381
 30
0.0
 10
363.6137599373315
 20
383.9022612138433
 30
0.0
 10
363.8402909185336
 20
384.8729414128046
 30
0.0
 10
363.9563231576104
 20
385.3701369677583
 30
0.0
 11
363.9563231576104
 21
385.3701369677583
 31
0.0
 11
364.1700130549726
 21
385.8384524220218
 31
0.0
 11
365.7746548930518
 21
386.934112514602
 31
0.0
 11
367.1560158083012
 21
386.3846083189546
 31
0.0
 11
367.5788822041305
 21
384.792449920169
 31
0.0
 11
366.9304866860785
 21
383.4257313054604
 31
0.0
 11
364.7738697673577
 21
382.8480480964499
 31
0.0
 11
363.8576545208071
 21
383.904789886983
 31
0.0
 11
363.9563231576104
 21
385.3701369677583
 31
0.0
  0
SPLINE
  5
16D6
100
AcDbEntity
  8
VHH-025
100
AcDbSpline
210
0.0
220
0.0
230
1.0
 70
     8
 71
     3
 72
    13
 73
     9
 74
     7
 42
0.0000001
 43
0.0000001
 44
0.0000000001
 40
0.0
 40
0.0
 40
0.0
 40
0.0
 40
3.284478271109012
 40
5.848013776661266
 40
8.811210366641791
 40
13.31059109350505
 40
22.19952180646307
 40
44.15308546549677
 40
44.15308546549677
 40
44.15308546549677
 40
44.15308546549677
 10
392.395012966992
 20
379.4177674662405
 30
0.0
 10
392.2468347361759
 20
378.3136587897748
 30
0.0
 10
391.9830033865104
 20
376.3477932190696
 30
0.0
 10
390.1848640327934
 20
373.919736906736
 30
0.0
 10
387.320362762025
 20
371.998322350054
 30
0.0
 10
381.7129396107132
 20
371.8006041290069
 30
0.0
 10
370.049073187388
 20
371.7017952914094
 30
0.0
 10
359.7366849455228
 20
371.6672750274954
 30
0.0
 10
352.3963683999828
 20
371.6427036422428
 30
0.0
 11
392.395012966992
 21
379.4177674662405
 31
0.0
 11
391.6572468669147
 21
376.2172208418396
 31
0.0
 11
390.1693600372674
 21
374.1296607659642
 31
0.0
 11
387.6919242624791
 21
372.503977521088
 31
0.0
 11
383.2377547612305
 21
371.8677378025731
 31
0.0
 11
374.349704701388
 21
371.7426164474727
 31
0.0
 11
352.3963683999828
 21
371.6427036422428
 31
0.0
  0
SPLINE
  5
16D7
100
AcDbEntity
  8
VHH-025
100
AcDbSpline
210
0.0
220
0.0
230
1.0
 70
     8
 71
     3
 72
    13
 73
     9
 74
     0
 42
0.0000001
 43
0.0000001
 40
84.6955679326532
 40
84.6955679326532
 40
84.6955679326532
 40
84.6955679326532
 40
85.81548028374967
 40
86.6565862794542
 40
87.78626872105837
 40
90.14984869879972
 40
105.9639654671869
 40
122.7164926965437
 40
122.7164926965437
 40
122.7164926965437
 40
122.7164926965437
 10
388.8950129669921
 20
394.5965874588546
 30
0.0
 10
388.8538765012473
 20
394.2189825823043
 30
0.0
 10
388.7768170888776
 20
393.5572200834922
 30
0.0
 10
388.1734023680566
 20
392.6939072621298
 30
0.0
 10
386.9925962672187
 20
391.7768441575299
 30
0.0
 10
380.2560208715932
 20
391.9075542287355
 30
0.0
 10
368.9215790542876
 20
392.066341626607
 30
0.0
 10
358.007963658638
 20
392.2371169104135
 30
0.0
 10
352.3939176089735
 20
392.3249650040725
 30
0.0
  0
LINE
  5
16D8
100
AcDbEntity
  8
VHH-025
100
AcDbLine
 10
369.338291
 20
384.633337
 30
0.0
 11
370.85524
 21
384.633337
 31
0.0
  0
LINE
  5
16D9
100
AcDbEntity
  8
VHH-025
100
AcDbLine
 10
367.799138
 20
380.602934
 30
0.0
 11
372.314967
 21
380.602934
 31
0.0
  0
LINE
  5
16DA
100
AcDbEntity
  8
VHH-025
100
AcDbLine
 10
369.820357
 20
386.955023
 30
0.0
 11
371.296376
 21
386.955023
 31
0.0
  0
LINE
  5
16DB
100
AcDbEntity
  8
VHH-025
100
AcDbLine
 10
353.615082
 20
382.757122
 30
0.0
 11
354.132881
 21
382.757122
 31
0.0
  0
LINE
  5
16DC
100
AcDbEntity
  8
VHH-025
100
AcDbLine
 10
356.258129
 20
386.955023
 30
0.0
 11
354.132881
 21
382.757122
 31
0.0
  0
LINE
  5
16DD
100
AcDbEntity
  8
VHH-025
100
AcDbLine
 10
353.248674
 20
386.955023
 30
0.0
 11
353.615082
 21
382.757122
 31
0.0
  0
LINE
  5
16DE
100
AcDbEntity
  8
VHH-025
100
AcDbLine
 10
348.682866
 20
383.558711
 30
0.0
 11
351.520656
 21
383.558711
 31
0.0
  0
LINE
  5
16DF
100
AcDbEntity
  8
VHH-025
100
AcDbLine
 10
348.21649
 20
382.757122
 30
0.0
 11
350.658889
 21
386.955023
 31
0.0
  0
LINE
  5
16E0
100
AcDbEntity
  8
VHH-025
100
AcDbLine
 10
350.964139
 20
386.955023
 30
0.0
 11
351.652003
 21
382.757122
 31
0.0
  0
LINE
  5
16E1
100
AcDbEntity
  8
VHH-025
100
AcDbLine
 10
354.827036
 20
380.602934
 30
0.0
 11
355.5149
 21
376.405033
 31
0.0
  0
LINE
  5
16E2
100
AcDbEntity
  8
VHH-025
100
AcDbLine
 10
352.079387
 20
376.405033
 30
0.0
 11
354.521786
 21
380.602934
 31
0.0
  0
LINE
  5
16E3
100
AcDbEntity
  8
VHH-025
100
AcDbLine
 10
352.545763
 20
377.206622
 30
0.0
 11
355.383552
 21
377.206622
 31
0.0
  0
LINE
  5
16E4
100
AcDbEntity
  8
VHH-025
100
AcDbLine
 10
349.832475
 20
376.405033
 30
0.0
 11
350.158709
 21
376.405033
 31
0.0
  0
LINE
  5
16E5
100
AcDbEntity
  8
VHH-025
100
AcDbLine
 10
347.84712
 20
380.602934
 30
0.0
 11
348.111544
 21
380.602934
 31
0.0
  0
LINE
  5
16E6
100
AcDbEntity
  8
VHH-025
100
AcDbLine
 10
354.521786
 20
380.602934
 30
0.0
 11
354.827036
 21
380.602934
 31
0.0
  0
LINE
  5
16E7
100
AcDbEntity
  8
VHH-025
100
AcDbLine
 10
351.030346
 20
380.602934
 30
0.0
 11
350.158709
 21
376.405033
 31
0.0
  0
LINE
  5
16E8
100
AcDbEntity
  8
VHH-025
100
AcDbLine
 10
348.111544
 20
380.602934
 30
0.0
 11
349.832475
 21
376.405033
 31
0.0
  0
LINE
  5
16E9
100
AcDbEntity
  8
VHH-025
100
AcDbLine
 10
368.948721
 20
382.757122
 30
0.0
 11
369.820357
 21
386.955023
 31
0.0
  0
LINE
  5
16EA
100
AcDbEntity
  8
VHH-025
100
AcDbLine
 10
359.673648
 20
382.757122
 30
0.0
 11
362.820196
 21
382.757122
 31
0.0
  0
LINE
  5
16EB
100
AcDbEntity
  8
VHH-025
100
AcDbLine
 10
358.448898
 20
386.955023
 30
0.0
 11
357.58159
 21
382.757122
 31
0.0
  0
LINE
  5
16EC
100
AcDbEntity
  8
VHH-025
100
AcDbLine
 10
360.544407
 20
386.971731
 30
0.0
 11
359.673648
 21
382.757122
 31
0.0
  0
LINE
  5
16ED
100
AcDbEntity
  8
VHH-025
100
AcDbLine
 10
361.907891
 20
380.602934
 30
0.0
 11
362.817651
 21
380.602934
 31
0.0
  0
LINE
  5
16EE
100
AcDbEntity
  8
VHH-025
100
AcDbLine
 10
369.174099
 20
376.37532
 30
0.0
 11
370.051457
 21
380.602934
 31
0.0
  0
LINE
  5
16EF
100
AcDbEntity
  8
VHH-025
100
AcDbLine
 10
359.54449
 20
376.405033
 30
0.0
 11
359.679117
 21
376.405033
 31
0.0
  0
LINE
  5
16F0
100
AcDbEntity
  8
VHH-025
100
AcDbLine
 10
362.817651
 20
380.602934
 30
0.0
 11
361.934659
 21
376.405033
 31
0.0
  0
LINE
  5
16F1
100
AcDbEntity
  8
VHH-025
100
AcDbLine
 10
358.322612
 20
380.602934
 30
0.0
 11
357.43962
 21
376.405033
 31
0.0
  0
LINE
  5
16F2
100
AcDbEntity
  8
VHH-025
100
AcDbLine
 10
361.907891
 20
380.602934
 30
0.0
 11
359.679117
 21
376.405033
 31
0.0
  0
LINE
  5
16F3
100
AcDbEntity
  8
VHH-025
100
AcDbLine
 10
359.224725
 20
380.602934
 30
0.0
 11
359.54449
 21
376.405033
 31
0.0
  0
LINE
  5
16F4
100
AcDbEntity
  8
VHH-025
100
AcDbLine
 10
364.262925
 20
377.206622
 30
0.0
 11
367.100714
 21
377.206622
 31
0.0
  0
LINE
  5
16F5
100
AcDbEntity
  8
VHH-025
100
AcDbLine
 10
363.796549
 20
376.405033
 30
0.0
 11
366.238948
 21
380.602934
 31
0.0
  0
LINE
  5
16F6
100
AcDbEntity
  8
VHH-025
100
AcDbLine
 10
366.238948
 20
380.602934
 30
0.0
 11
366.544197
 21
380.602934
 31
0.0
  0
LINE
  5
16F7
100
AcDbEntity
  8
VHH-025
100
AcDbLine
 10
366.544197
 20
380.602934
 30
0.0
 11
367.232062
 21
376.405033
 31
0.0
  0
LINE
  5
16F8
100
AcDbEntity
  8
VHH-025
100
AcDbLine
 10
358.322612
 20
380.602934
 30
0.0
 11
359.224725
 21
380.602934
 31
0.0
  0
LINE
  5
16F9
100
AcDbEntity
  8
VHH-025
100
AcDbLine
 10
350.658889
 20
386.955023
 30
0.0
 11
350.964139
 21
386.955023
 31
0.0
  0
LINE
  5
16FA
100
AcDbEntity
  8
VHH-025
100
AcDbLine
 10
347.84712
 20
380.602934
 30
0.0
 11
346.975483
 21
376.405033
 31
0.0
  0
CIRCLE
  5
16FB
100
AcDbEntity
  8
VHH-025
100
AcDbCircle
 10
375.436106
 20
386.461906
 30
0.0
 40
0.724411
  0
CIRCLE
  5
16FC
100
AcDbEntity
  8
VHH-025
100
AcDbCircle
 10
374.488129
 20
380.207773
 30
0.0
 40
0.724411
  0
LINE
  5
16FD
100
AcDbEntity
  8
VHH-025
100
AcDbLine
 10
500.492821
 20
344.3
 30
0.0
 11
491.492821
 21
344.3
 31
0.0
  0
LINE
  5
16FE
100
AcDbEntity
  8
VHH-025
100
AcDbLine
 10
500.492821
 20
344.9
 30
0.0
 11
491.741349
 21
344.9
 31
0.0
  0
LINE
  5
16FF
100
AcDbEntity
  8
VHH-025
100
AcDbLine
 10
490.741349
 20
345.9
 30
0.0
 11
500.492821
 21
345.9
 31
0.0
  0
LINE
  5
1700
100
AcDbEntity
  8
VHH-025
100
AcDbLine
 10
486.70727
 20
347.9
 30
0.0
 11
510.291223
 21
347.9
 31
0.0
  0
SPLINE
  5
1701
100
AcDbEntity
  8
VHH-025
100
AcDbSpline
210
0.0
220
0.0
230
-1.0
 70
     8
 71
     3
 72
    11
 73
     7
 74
     5
 42
0.0000001
 43
0.0000001
 44
0.0000000001
 40
0.0
 40
0.0
 40
0.0
 40
0.0
 40
2.439326604699221
 40
9.559659611393655
 40
15.47915361148254
 40
15.77071151036985
 40
15.77071151036985
 40
15.77071151036985
 40
15.77071151036985
 10
457.584772391283
 20
341.9553123135147
 30
0.0
 10
457.4858431730095
 20
342.7625529932154
 30
0.0
 10
457.0981420548012
 20
345.926108913748
 30
0.0
 10
456.9325990171672
 20
351.0905796447771
 30
0.0
 10
456.8898831202077
 20
355.5344828812903
 30
0.0
 10
456.9547859046594
 20
357.6038408261469
 30
0.0
 10
456.9578325575895
 20
357.7009801938838
 30
0.0
 11
457.584772391283
 21
341.9553123135147
 31
0.0
 11
457.3065716498732
 21
344.3787228507271
 31
0.0
 11
456.9488794670852
 21
351.4900657920143
 31
0.0
 11
456.9488794670852
 21
357.4095597921032
 31
0.0
 11
456.9578325575895
 21
357.7009801938838
 31
0.0
  0
SPLINE
  5
1702
100
AcDbEntity
  8
VHH-025
100
AcDbSpline
210
0.0
220
0.0
230
-1.0
 70
     8
 71
     3
 72
    11
 73
     7
 74
     5
 42
0.0000001
 43
0.0000001
 44
0.0000000001
 40
0.0
 40
0.0
 40
0.0
 40
0.0
 40
0.2640450802004821
 40
0.4702127551992384
 40
0.7109238314947751
 40
0.9626525607727637
 40
0.9626525607727637
 40
0.9626525607727637
 40
0.9626525607727637
 10
462.9058637853741
 20
358.2000001475153
 30
0.0
 10
462.9929956987473
 20
358.1986271830218
 30
0.0
 10
463.1481606312728
 20
358.196182201215
 30
0.0
 10
463.3936839622129
 20
358.1451926325194
 30
0.0
 10
463.5224239353326
 20
357.9277118352432
 30
0.0
 10
463.5599063271485
 20
357.7694632901767
 30
0.0
 10
463.5790668311439
 20
357.6885687225385
 30
0.0
 11
462.9058637853741
 21
358.2000001475153
 31
0.0
 11
463.1695383849638
 21
358.1860176617092
 31
0.0
 11
463.3664331644778
 21
358.1248821072867
 31
0.0
 11
463.5076665830111
 21
357.9299591898534
 31
0.0
 11
463.5790668311439
 21
357.6885687225385
 31
0.0
  0
SPLINE
  5
1703
100
AcDbEntity
  8
VHH-025
100
AcDbSpline
210
0.0
220
0.0
230
1.0
 70
     8
 71
     3
 72
    13
 73
     9
 74
     7
 42
0.0000001
 43
0.0000001
 44
0.0000000001
 40
0.0
 40
0.0
 40
0.0
 40
0.0
 40
6.026680851532884
 40
11.00810038444558
 40
13.94509459379618
 40
15.5249076926455
 40
17.0649779664407
 40
19.47261726715507
 40
19.47261726715507
 40
19.47261726715507
 40
19.47261726715507
 10
463.5790668311439
 20
357.6885687225385
 30
0.0
 10
463.475444635784
 20
355.6783244264755
 30
0.0
 10
463.2861723718828
 20
352.0064905342438
 30
0.0
 10
462.3464730845352
 20
347.451856828256
 30
0.0
 10
461.3640545028275
 20
344.4042488626192
 30
0.0
 10
460.2260658636155
 20
342.7277519215181
 30
0.0
 10
458.7931842768579
 20
341.4631596216605
 30
0.0
 10
458.6673770467729
 20
340.0879001610812
 30
0.0
 10
458.5906494086958
 20
339.2491533729817
 30
0.0
 11
463.5790668311439
 21
357.6885687225385
 31
0.0
 11
463.1025941599274
 21
351.6807524903442
 31
0.0
 11
462.0957476104432
 21
346.8021460716345
 31
0.0
 11
461.0623974793617
 21
344.0529420973262
 31
0.0
 11
460.1615266494392
 21
342.7551589201002
 31
0.0
 11
459.1546800999513
 21
341.589793537908
 31
0.0
 11
458.5906494086958
 21
339.2491533729817
 31
0.0
  0
SPLINE
  5
1704
100
AcDbEntity
  8
VHH-025
100
AcDbSpline
210
0.0
220
0.0
230
1.0
 70
     8
 71
     3
 72
    12
 73
     8
 74
     6
 42
0.0000001
 43
0.0000001
 44
0.0000000001
 40
0.0
 40
0.0
 40
0.0
 40
0.0
 40
0.5662025144864266
 40
1.132136061659262
 40
1.697787119143812
 40
2.263116602109281
 40
2.828292171028452
 40
2.828292171028452
 40
2.828292171028452
 40
2.828292171028452
 10
478.2392912167725
 20
349.6078597155219
 30
0.0
 10
478.2778254530465
 20
349.4209906306536
 30
0.0
 10
478.3548756203948
 20
349.0473412307022
 30
0.0
 10
478.6937841494141
 20
348.5795073738379
 30
0.0
 10
479.1090124120173
 20
348.1881665273071
 30
0.0
 10
479.6414628587955
 20
347.9617161549872
 30
0.0
 10
480.017026530721
 20
347.9205702874988
 30
0.0
 10
480.2047828008872
 20
347.9000001546828
 30
0.0
 11
478.2392912167725
 21
349.6078597155219
 31
0.0
 11
478.3921477059776
 21
349.0626806796826
 31
0.0
 11
478.7065993854777
 21
348.5921480866827
 31
0.0
 11
479.1286738049786
 21
348.215565687683
 31
0.0
 11
479.646682610477
 21
347.9891494741823
 31
0.0
 11
480.2047828008872
 21
347.9000001546828
 31
0.0
  0
SPLINE
  5
1705
100
AcDbEntity
  8
VHH-025
100
AcDbSpline
210
0.0
220
0.0
230
1.0
 70
     8
 71
     3
 72
    11
 73
     7
 74
     5
 42
0.0000001
 43
0.0000001
 44
0.0000000001
 40
0.0
 40
0.0
 40
0.0
 40
0.0
 40
0.6501585836432341
 40
1.328696847749696
 40
2.007498148689249
 40
2.665365116565286
 40
2.665365116565286
 40
2.665365116565286
 40
2.665365116565286
 10
472.2737508549782
 20
349.479886350683
 30
0.0
 10
472.3122402179136
 20
349.2617176408115
 30
0.0
 10
472.3908990197672
 20
348.8158570702112
 30
0.0
 10
472.8813033361267
 20
348.3199186768729
 30
0.0
 10
473.4690470179166
 20
347.9706116462886
 30
0.0
 10
473.9173971835097
 20
347.9232902761233
 30
0.0
 10
474.1380613309776
 20
347.9000001546828
 30
0.0
 11
472.2737508549782
 21
349.479886350683
 31
0.0
 11
472.4481015584207
 21
348.853541384954
 31
0.0
 11
472.8973064674192
 21
348.3449854631635
 31
0.0
 11
473.490240609317
 21
348.0145307619877
 31
0.0
 11
474.1380613309776
 21
347.9000001546828
 31
0.0
  0
SPLINE
  5
1706
100
AcDbEntity
  8
VHH-025
100
AcDbSpline
210
0.0
220
0.0
230
1.0
 70
     8
 71
     3
 72
    13
 73
     9
 74
     7
 42
0.0000001
 43
0.0000001
 44
0.0000000001
 40
0.0
 40
0.0
 40
0.0
 40
0.0
 40
5.15733124212759
 40
11.03348381863833
 40
14.61916662718481
 40
16.7824266035245
 40
17.8917438422132
 40
18.52503597702112
 40
18.52503597702112
 40
18.52503597702112
 40
18.52503597702112
 10
477.8532021991196
 20
359.2000001114847
 30
0.0
 10
477.9422179798145
 20
360.9169780778866
 30
0.0
 10
478.1326564313685
 20
364.5902439046981
 30
0.0
 10
478.2614403609054
 20
369.4602549082196
 30
0.0
 10
478.2825631482366
 20
373.3399900125478
 30
0.0
 10
478.0370478649222
 20
375.6167616270013
 30
0.0
 10
477.7589508943155
 20
376.8932364663029
 30
0.0
 10
477.5551340026466
 20
377.437658794143
 30
0.0
 10
477.4810636823568
 20
377.6355105809398
 30
0.0
 11
477.8532021991196
 21
359.2000001114847
 31
0.0
 11
478.0998774813652
 21
364.3514287333482
 31
0.0
 11
478.2561007881123
 21
370.2255042674951
 31
0.0
 11
478.2010232180147
 21
373.8107640439657
 31
0.0
 11
477.9486954745663
 21
375.9592575708629
 31
0.0
 11
477.6927428217732
 21
377.0386430328644
 31
0.0
 11
477.4810636823568
 21
377.6355105809398
 31
0.0
  0
SPLINE
  5
1707
100
AcDbEntity
  8
VHH-025
100
AcDbSpline
210
0.0
220
0.0
230
-1.0
 70
     8
 71
     3
 72
    17
 73
    13
 74
    11
 42
0.0000001
 43
0.0000001
 44
0.0000000001
 40
0.0
 40
0.0
 40
0.0
 40
0.0
 40
0.5545798661035835
 40
1.653562178450133
 40
2.750923934510922
 40
3.848571212511746
 40
4.674193321129415
 40
5.488636099266186
 40
8.52417256482677
 40
12.84394436806059
 40
16.51294489443546
 40
20.18194542081096
 40
20.18194542081096
 40
20.18194542081096
 40
20.18194542081096
 10
477.2087646504006
 20
378.0853574984503
 30
0.0
 10
477.1808548449659
 20
377.9026698175621
 30
0.0
 10
477.0976376178439
 20
377.3579593835031
 30
0.0
 10
476.8633062844342
 20
376.4646237353086
 30
0.0
 10
476.3319711846378
 20
375.4910481188911
 30
0.0
 10
475.6629576941504
 20
374.7299702545482
 30
0.0
 10
474.9454524908125
 20
374.1564970038736
 30
0.0
 10
474.0722267004468
 20
372.8443091403952
 30
0.0
 10
473.2577723396566
 20
370.221598923356
 30
0.0
 10
472.2054193466068
 20
366.6990277768245
 30
0.0
 10
471.7756671431989
 20
362.8252619162198
 30
0.0
 10
471.4064254417825
 20
360.4084207388928
 30
0.0
 10
471.2218045910741
 20
359.2000001502292
 30
0.0
 11
477.2087646504006
 21
378.0853574984503
 31
0.0
 11
477.1185519592092
 21
377.5381642069751
 31
0.0
 11
476.821309251438
 21
376.4801429900198
 31
0.0
 11
476.2990035558051
 21
375.5150525362414
 31
0.0
 11
475.5772749441222
 21
374.6880474830641
 31
0.0
 11
474.9738273776057
 21
374.1245735256325
 31
0.0
 11
474.502044655872
 21
373.4606924351255
 31
0.0
 11
473.3911037781509
 21
370.6357513738012
 31
0.0
 11
472.2801629004298
 21
366.4612767004773
 31
0.0
 11
471.7509837457511
 21
362.8306384253537
 31
0.0
 11
471.2218045910741
 21
359.2000001502292
 31
0.0
  0
SPLINE
  5
1708
100
AcDbEntity
  8
VHH-025
100
AcDbSpline
210
0.0
220
0.0
230
-1.0
 70
     8
 71
     3
 72
    11
 73
     7
 74
     5
 42
0.0000001
 43
0.0000001
 44
0.0000000001
 40
0.0
 40
0.0
 40
0.0
 40
0.0
 40
0.2876013813413115
 40
0.7434602540702935
 40
1.071800028715998
 40
1.247100552970488
 40
1.247100552970488
 40
1.247100552970488
 40
1.247100552970488
 10
461.4465944261211
 20
359.2000001502301
 30
0.0
 10
461.4599612700401
 20
359.1058239028889
 30
0.0
 10
461.4945150580982
 20
358.8623748052204
 30
0.0
 10
461.5442431104806
 20
358.4895937159044
 30
0.0
 10
461.8073002486625
 20
358.2690133025786
 30
0.0
 10
461.9671093237146
 20
358.2178191412338
 30
0.0
 10
462.0227335751861
 20
358.2000001475153
 30
0.0
 11
461.4465944261211
 21
359.2000001502301
 31
0.0
 11
461.4866860331841
 21
358.9152068609964
 31
0.0
 11
461.6105155270835
 21
358.4764887643941
 31
0.0
 11
461.8584934963311
 21
358.2612820396334
 31
0.0
 11
462.0227335751861
 21
358.2000001475153
 31
0.0
  0
SPLINE
  5
1709
100
AcDbEntity
  8
VHH-025
100
AcDbSpline
210
0.0
220
0.0
230
-1.0
 70
     8
 71
     3
 72
    13
 73
     9
 74
     7
 42
0.0000001
 43
0.0000001
 44
0.0000000001
 40
0.0
 40
0.0
 40
0.0
 40
0.0
 40
5.157331242128499
 40
11.03348381863833
 40
14.61916662718572
 40
16.7824266035245
 40
17.89174384221409
 40
18.52503597702115
 40
18.52503597702115
 40
18.52503597702115
 40
18.52503597702115
 10
456.9346318892168
 20
359.2000001114847
 30
0.0
 10
456.8456161085218
 20
360.916978077887
 30
0.0
 10
456.6551776569678
 20
364.5902439046984
 30
0.0
 10
456.526393727431
 20
369.4602549082202
 30
0.0
 10
456.5052709400996
 20
373.3399900125482
 30
0.0
 10
456.7507862234146
 20
375.6167616270017
 30
0.0
 10
457.0288831940206
 20
376.8932364663033
 30
0.0
 10
457.2327000856898
 20
377.4376587941434
 30
0.0
 10
457.3067704059796
 20
377.6355105809398
 30
0.0
 11
456.9346318892168
 21
359.2000001114847
 31
0.0
 11
456.6879566069712
 21
364.3514287333491
 31
0.0
 11
456.5317333002241
 21
370.2255042674951
 31
0.0
 11
456.5868108703218
 21
373.8107640439666
 31
0.0
 11
456.8391386137701
 21
375.9592575708629
 31
0.0
 11
457.0950912665631
 21
377.0386430328653
 31
0.0
 11
457.3067704059796
 21
377.6355105809398
 31
0.0
  0
SPLINE
  5
170A
100
AcDbEntity
  8
VHH-025
100
AcDbSpline
210
0.0
220
0.0
230
1.0
 70
     8
 71
     3
 72
    17
 73
    13
 74
    11
 42
0.0000001
 43
0.0000001
 44
0.0000000001
 40
0.0
 40
0.0
 40
0.0
 40
0.0
 40
0.5545798661035835
 40
1.653562178450133
 40
2.750923934510121
 40
3.848571212510946
 40
4.674193321129235
 40
5.488636099265265
 40
8.52417256482585
 40
12.84394436805967
 40
16.51294489443543
 40
20.18194542081094
 40
20.18194542081094
 40
20.18194542081094
 40
20.18194542081094
 10
457.5790694379358
 20
378.0853574984503
 30
0.0
 10
457.6069792433705
 20
377.9026698175621
 30
0.0
 10
457.6901964704923
 20
377.3579593835031
 30
0.0
 10
457.9245278039021
 20
376.4646237353088
 30
0.0
 10
458.4558629036987
 20
375.4910481188917
 30
0.0
 10
459.1248763941865
 20
374.7299702545491
 30
0.0
 10
459.8423815975232
 20
374.1564970038737
 30
0.0
 10
460.7156073878908
 20
372.8443091403966
 30
0.0
 10
461.5300617486791
 20
370.2215989233565
 30
0.0
 10
462.5824147417296
 20
366.6990277768252
 30
0.0
 10
463.0121669451375
 20
362.82526191622
 30
0.0
 10
463.381408646554
 20
360.4084207388927
 30
0.0
 10
463.5660294972622
 20
359.2000001502292
 30
0.0
 11
457.5790694379358
 21
378.0853574984503
 31
0.0
 11
457.6692821291272
 21
377.5381642069751
 31
0.0
 11
457.9665248368984
 21
376.4801429900198
 31
0.0
 11
458.4888305325313
 21
375.5150525362423
 31
0.0
 11
459.2105591442142
 21
374.688047483065
 31
0.0
 11
459.8140067107307
 21
374.1245735256325
 31
0.0
 11
460.2857894324643
 21
373.4606924351264
 31
0.0
 11
461.3967303101855
 21
370.6357513738021
 31
0.0
 11
462.5076711879065
 21
366.4612767004782
 31
0.0
 11
463.0368503425853
 21
362.8306384253537
 31
0.0
 11
463.5660294972622
 21
359.2000001502292
 31
0.0
  0
LINE
  5
170B
100
AcDbEntity
  8
VHH-025
100
AcDbLine
 10
473.336874
 20
359.2
 30
0.0
 11
473.1961
 21
358.2
 31
0.0
  0
ARC
  5
170C
100
AcDbEntity
  8
VHH-025
100
AcDbCircle
 10
487.092821
 20
346.9
 30
0.0
 40
1.0
100
AcDbArc
 50
90.0
 51
270.0
  0
ARC
  5
170D
100
AcDbEntity
  8
VHH-025
100
AcDbCircle
 10
487.092821
 20
346.9
 30
0.0
 40
1.6
100
AcDbArc
 50
141.317813
 51
270.0
  0
LINE
  5
170E
100
AcDbEntity
  8
VHH-025
100
AcDbLine
 10
486.274655
 20
347.9
 30
0.0
 11
486.70727
 21
347.9
 31
0.0
  0
LINE
  5
170F
100
AcDbEntity
  8
VHH-025
100
AcDbLine
 10
484.914908
 20
347.9
 30
0.0
 11
485.041688
 21
347.9
 31
0.0
  0
LINE
  5
1710
100
AcDbEntity
  8
VHH-025
100
AcDbLine
 10
485.041688
 20
347.9
 30
0.0
 11
485.110884
 21
347.9
 31
0.0
  0
LINE
  5
1711
100
AcDbEntity
  8
VHH-025
100
AcDbLine
 10
485.110884
 20
347.9
 30
0.0
 11
485.183243
 21
347.9
 31
0.0
  0
LINE
  5
1712
100
AcDbEntity
  8
VHH-025
100
AcDbLine
 10
485.183243
 20
347.9
 30
0.0
 11
485.503052
 21
347.9
 31
0.0
  0
LINE
  5
1713
100
AcDbEntity
  8
VHH-025
100
AcDbLine
 10
485.503052
 20
347.9
 30
0.0
 11
485.681083
 21
347.9
 31
0.0
  0
LINE
  5
1714
100
AcDbEntity
  8
VHH-025
100
AcDbLine
 10
485.681083
 20
347.9
 30
0.0
 11
485.87101
 21
347.9
 31
0.0
  0
LINE
  5
1715
100
AcDbEntity
  8
VHH-025
100
AcDbLine
 10
485.87101
 20
347.9
 30
0.0
 11
486.274655
 21
347.9
 31
0.0
  0
LINE
  5
1716
100
AcDbEntity
  8
VHH-025
100
AcDbLine
 10
495.25728
 20
346.5
 30
0.0
 11
495.25728
 21
347.1
 31
0.0
  0
LINE
  5
1717
100
AcDbEntity
  8
VHH-025
100
AcDbLine
 10
491.741349
 20
344.9
 30
0.0
 11
490.741349
 21
345.9
 31
0.0
  0
LINE
  5
1718
100
AcDbEntity
  8
VHH-025
100
AcDbLine
 10
490.492821
 20
345.3
 30
0.0
 11
487.092821
 21
345.3
 31
0.0
  0
LINE
  5
1719
100
AcDbEntity
  8
VHH-025
100
AcDbLine
 10
491.492821
 20
344.3
 30
0.0
 11
490.492821
 21
345.3
 31
0.0
  0
LINE
  5
171A
100
AcDbEntity
  8
VHH-025
100
AcDbLine
 10
487.092821
 20
345.9
 30
0.0
 11
490.741349
 21
345.9
 31
0.0
  0
LINE
  5
171B
100
AcDbEntity
  8
VHH-025
100
AcDbLine
 10
477.826922
 20
358.2
 30
0.0
 11
478.239291
 21
349.60786
 31
0.0
  0
LINE
  5
171C
100
AcDbEntity
  8
VHH-025
100
AcDbLine
 10
471.195651
 20
358.2
 30
0.0
 11
472.273751
 21
349.479886
 31
0.0
  0
LWPOLYLINE
  5
171D
100
AcDbEntity
  8
VHH-025
100
AcDbPolyline
 90
        6
 70
     0
 43
0.0
 10
503.403994
 20
345.522402
 10
503.320638
 20
345.90028
 10
503.100061
 20
346.21822
 10
502.775293
 20
346.428614
 10
502.405793
 20
346.499999
 10
502.404245
 20
346.5
  0
SPLINE
  5
171E
100
AcDbEntity
  8
VHH-025
100
AcDbSpline
210
0.0
220
0.0
230
1.0
 70
     8
 71
     3
 72
    12
 73
     8
 74
     6
 42
0.0000001
 43
0.0000001
 44
0.0000000001
 40
0.0
 40
0.0
 40
0.0
 40
0.0
 40
0.6333227639757436
 40
1.258591262609754
 40
1.575282577616405
 40
2.212493335719473
 40
2.538190609335753
 40
2.538190609335753
 40
2.538190609335753
 40
2.538190609335753
 10
502.6364221391378
 20
389.3419913231118
 30
0.0
 10
502.662270145546
 20
389.1295174019109
 30
0.0
 10
502.7136374370311
 20
388.7072716909289
 30
0.0
 10
503.0432691672501
 20
388.2669763418825
 30
0.0
 10
503.4666289704043
 20
387.9539308137647
 30
0.0
 10
503.8845163572169
 20
387.8053710274962
 30
0.0
 10
504.2060786727216
 20
387.8065737614115
 30
0.0
 10
504.3148449993151
 20
387.8069805782042
 30
0.0
 11
502.6364221391378
 21
389.3419913231118
 31
0.0
 11
502.76764565723
 21
388.7224123437481
 31
0.0
 11
503.1322602324963
 21
388.2144586973518
 31
0.0
 11
503.3868502262631
 21
388.0261044458084
 31
0.0
 11
503.9893582000224
 21
387.8186877352982
 31
0.0
 11
504.3148449993151
 21
387.8069805782042
 31
0.0
  0
SPLINE
  5
171F
100
AcDbEntity
  8
VHH-025
100
AcDbSpline
210
0.0
220
0.0
230
-1.0
 70
     8
 71
     3
 72
    14
 73
    10
 74
     8
 42
0.0000001
 43
0.0000001
 44
0.0000000001
 40
0.0
 40
0.0
 40
0.0
 40
0.0
 40
0.2461636398492001
 40
0.4473543715031562
 40
0.8348519280357574
 40
1.027990166880858
 40
1.250840234265958
 40
1.448371555081069
 40
1.702783789879106
 40
1.702783789879106
 40
1.702783789879106
 40
1.702783789879106
 10
503.9643874533577
 20
393.6545248284601
 30
0.0
 10
503.9642113473589
 20
393.5722304303879
 30
0.0
 10
503.9638913090767
 20
393.4226764233443
 30
0.0
 10
504.0252851569126
 20
393.1491511673842
 30
0.0
 10
504.1285154208824
 20
392.9103981620169
 30
0.0
 10
504.26326764162
 20
392.6727114014274
 30
0.0
 10
504.4429617060715
 20
392.5639873895176
 30
0.0
 10
504.648737507628
 20
392.4698163598693
 30
0.0
 10
504.8006968341164
 20
392.4596876389555
 30
0.0
 10
504.8862391797703
 20
392.453985885957
 30
0.0
 11
503.9643874533577
 21
393.6545248284601
 31
0.0
 11
503.9739172372666
 21
393.4085457220253
 31
0.0
 11
504.0156067333847
 21
393.2117216980423
 31
0.0
 11
504.1634030531969
 21
392.8535170021368
 31
0.0
 11
504.2695098768891
 21
392.6921363302144
 31
0.0
 11
504.4518015476443
 21
392.5639493601011
 31
0.0
 11
504.6340932183994
 21
392.4878680254896
 31
0.0
 11
504.8862391797703
 21
392.453985885957
 31
0.0
  0
SPLINE
  5
1720
100
AcDbEntity
  8
VHH-025
100
AcDbSpline
210
0.0
220
0.0
230
1.0
 70
     8
 71
     3
 72
    12
 73
     8
 74
     6
 42
0.0000001
 43
0.0000001
 44
0.0000000001
 40
0.0
 40
0.0
 40
0.0
 40
0.0
 40
0.430102224716345
 40
0.8434719887057884
 40
1.254524939527736
 40
1.659116521511796
 40
1.863361491889543
 40
1.863361491889543
 40
1.863361491889543
 40
1.863361491889543
 10
516.6437753548471
 20
393.1033544413385
 30
0.0
 10
516.7862972235857
 20
393.1217674132382
 30
0.0
 10
517.065796368558
 20
393.1578770288918
 30
0.0
 10
517.4582415339771
 20
393.3250705673646
 30
0.0
 10
517.7541387823554
 20
393.6260807858605
 30
0.0
 10
517.8782788551536
 20
393.9503294105013
 30
0.0
 10
517.9133124448963
 20
394.1501079148765
 30
0.0
 10
517.9250650810864
 20
394.2171271412189
 30
0.0
 11
516.6437753548471
 21
393.1033544413385
 31
0.0
 11
517.0672740075898
 21
393.1784331655626
 31
0.0
 11
517.4440299092258
 21
393.3485200620689
 31
0.0
 11
517.7310345961887
 21
393.6427866725443
 31
0.0
 11
517.8854099007841
 21
394.0167687757839
 31
0.0
 11
517.9250650810864
 21
394.2171271412189
 31
0.0
  0
ARC
  5
1721
100
AcDbEntity
  8
VHH-025
100
AcDbCircle
 10
519.101687
 20
390.832858
 30
0.0
 40
0.5
100
AcDbArc
 50
273.09421
 51
359.745727
  0
LINE
  5
1722
100
AcDbEntity
  8
VHH-025
100
AcDbLine
 10
517.984902
 20
392.692136
 30
0.0
 11
519.215684
 21
390.33829
 31
0.0
  0
LINE
  5
1723
100
AcDbEntity
  8
VHH-025
100
AcDbLine
 10
504.474308
 20
390.070754
 30
0.0
 11
504.481194
 21
392.255703
 31
0.0
  0
LINE
  5
1724
100
AcDbEntity
  8
VHH-025
100
AcDbLine
 10
504.17145
 20
392.838215
 30
0.0
 11
505.883965
 21
389.617621
 31
0.0
  0
LINE
  5
1725
100
AcDbEntity
  8
VHH-025
100
AcDbLine
 10
500.492821
 20
345.9
 30
0.0
 11
500.492821
 21
344.9
 31
0.0
  0
LINE
  5
1726
100
AcDbEntity
  8
VHH-025
100
AcDbLine
 10
500.492821
 20
344.9
 30
0.0
 11
500.492821
 21
344.3
 31
0.0
  0
LINE
  5
1727
100
AcDbEntity
  8
VHH-025
100
AcDbLine
 10
516.643775
 20
393.103354
 30
0.0
 11
504.886239
 21
392.453986
 31
0.0
  0
LINE
  5
1728
100
AcDbEntity
  8
VHH-025
100
AcDbLine
 10
519.128676
 20
390.333586
 30
0.0
 11
505.001295
 21
389.569907
 31
0.0
  0
SPLINE
  5
1729
100
AcDbEntity
  8
VHH-025
100
AcDbSpline
210
0.0
220
0.0
230
-1.0
 70
     8
 71
     3
 72
    15
 73
    11
 74
     9
 42
0.0000001
 43
0.0000001
 44
0.0000000001
 40
0.0
 40
0.0
 40
0.0
 40
0.0
 40
8.727930916722135
 40
16.25763323255691
 40
20.36216076943215
 40
21.62307303412593
 40
23.69549543386571
 40
25.38624445710447
 40
45.72281463408891
 40
79.43205808847221
 40
79.43205808847221
 40
79.43205808847221
 40
79.43205808847221
 10
457.5319385806507
 20
421.7000001546839
 30
0.0
 10
456.8331600235881
 20
424.5165902787398
 30
0.0
 10
455.5315358929784
 20
429.7630902384965
 30
0.0
 10
453.6014489359807
 20
436.3571665177101
 30
0.0
 10
451.2950302579909
 20
439.9812058379029
 30
0.0
 10
449.756776439062
 20
441.9824605104744
 30
0.0
 10
448.0670288658176
 20
442.5205618189427
 30
0.0
 10
440.1310061467789
 20
443.305266123906
 30
0.0
 10
421.5700836571382
 20
445.2216375837597
 30
0.0
 10
403.6019973434807
 20
446.2672750766846
 30
0.0
 10
392.3950128379329
 20
446.9194560033047
 30
0.0
 11
457.5319385806507
 21
421.7000001546839
 31
0.0
 11
455.3666046918698
 21
430.1550641542744
 31
0.0
 11
452.8670825966875
 21
437.2577964638003
 31
0.0
 11
450.6986473565595
 21
440.7427691911452
 31
0.0
 11
449.8628330839929
 21
441.6868635937499
 31
0.0
 11
447.9466847225013
 21
442.476363473228
 31
0.0
 11
446.2705760846184
 21
442.6983817013024
 31
0.0
 11
426.0275580829531
 21
444.6467935539821
 31
0.0
 11
392.3950128379329
 21
446.9194560033047
 31
0.0
  0
SPLINE
  5
172A
100
AcDbEntity
  8
VHH-025
100
AcDbSpline
210
0.0
220
0.0
230
-1.0
 70
     8
 71
     3
 72
    14
 73
    10
 74
     0
 42
0.0000001
 43
0.0000001
 40
0.0
 40
0.0
 40
0.0
 40
0.0
 40
8.543455177382728
 40
32.60806185346405
 40
34.09251365044104
 40
35.82256549595564
 40
37.21403762249804
 40
38.48665207093368
 40
38.6143838058074
 40
38.6143838058074
 40
38.6143838058074
 40
38.6143838058074
 10
352.3961008149928
 20
444.5729801514044
 30
0.0
 10
355.2453872929801
 20
444.5609811172362
 30
0.0
 10
366.12034453024
 20
444.5151840433118
 30
0.0
 10
377.8900730085225
 20
444.4312267889308
 30
0.0
 10
386.5784650361457
 20
444.1590829833203
 30
0.0
 10
388.0299791198923
 20
443.4382751519187
 30
0.0
 10
388.8603845465078
 20
442.1360331845171
 30
0.0
 10
388.8844757944772
 20
441.1915641575578
 30
0.0
 10
388.8941502508097
 20
440.7193440493393
 30
0.0
 10
388.8950129669921
 20
440.6762831537071
 30
0.0
  0
ARC
  5
172B
100
AcDbEntity
  8
VHH-025
100
AcDbCircle
 10
356.687417
 20
-282.949534
 30
0.0
 40
730.516587
100
AcDbArc
 50
87.19827
 51
90.336663
  0
LINE
  5
172C
100
AcDbEntity
  8
VHH-025
100
AcDbLine
 10
378.891734
 20
435.694917
 30
0.0
 11
383.891734
 21
435.694917
 31
0.0
  0
LINE
  5
172D
100
AcDbEntity
  8
VHH-025
100
AcDbLine
 10
378.891734
 20
435.694917
 30
0.0
 11
381.391734
 21
431.36479
 31
0.0
  0
LINE
  5
172E
100
AcDbEntity
  8
VHH-025
100
AcDbLine
 10
381.391734
 20
431.36479
 30
0.0
 11
383.891734
 21
435.694917
 31
0.0
  0
LINE
  5
172F
100
AcDbEntity
  8
VHH-025
100
AcDbLine
 10
350.982392
 20
413.202091
 30
0.0
 11
351.51103
 21
415.845282
 31
0.0
  0
LINE
  5
1730
100
AcDbEntity
  8
VHH-025
100
AcDbLine
 10
348.236041
 20
415.901023
 30
0.0
 11
347.707925
 21
413.260446
 31
0.0
  0
LINE
  5
1731
100
AcDbEntity
  8
VHH-025
100
AcDbLine
 10
357.182392
 20
413.202091
 30
0.0
 11
357.71103
 21
415.845282
 31
0.0
  0
LINE
  5
1732
100
AcDbEntity
  8
VHH-025
100
AcDbLine
 10
354.436041
 20
415.901023
 30
0.0
 11
353.907925
 21
413.260446
 31
0.0
  0
LINE
  5
1733
100
AcDbEntity
  8
VHH-025
100
AcDbLine
 10
359.641734
 20
407.751541
 30
0.0
 11
359.641734
 21
417.751541
 31
0.0
  0
LINE
  5
1734
100
AcDbEntity
  8
VHH-025
100
AcDbLine
 10
353.717266
 20
412.307147
 30
0.0
 11
353.188627
 21
409.663956
 31
0.0
  0
LINE
  5
1735
100
AcDbEntity
  8
VHH-025
100
AcDbLine
 10
347.688514
 20
412.751541
 30
0.0
 11
350.811143
 21
412.757697
 31
0.0
  0
LINE
  5
1736
100
AcDbEntity
  8
VHH-025
100
AcDbLine
 10
350.263616
 20
409.608215
 30
0.0
 11
350.791732
 21
412.248792
 31
0.0
  0
LINE
  5
1737
100
AcDbEntity
  8
VHH-025
100
AcDbLine
 10
356.463616
 20
409.608215
 30
0.0
 11
356.991732
 21
412.248792
 31
0.0
  0
LINE
  5
1738
100
AcDbEntity
  8
VHH-025
100
AcDbLine
 10
353.888514
 20
412.751541
 30
0.0
 11
357.011143
 21
412.757697
 31
0.0
  0
LINE
  5
1739
100
AcDbEntity
  8
VHH-025
100
AcDbLine
 10
347.517266
 20
412.307147
 30
0.0
 11
346.988627
 21
409.663956
 31
0.0
  0
LINE
  5
173A
100
AcDbEntity
  8
VHH-025
100
AcDbLine
 10
353.442223
 20
409.354619
 30
0.0
 11
356.15428
 21
409.354619
 31
0.0
  0
CIRCLE
  5
173B
100
AcDbEntity
  8
VHH-025
100
AcDbCircle
 10
351.524771
 20
409.354619
 30
0.0
 40
0.025
  0
CIRCLE
  5
173C
100
AcDbEntity
  8
VHH-025
100
AcDbCircle
 10
357.724771
 20
409.354619
 30
0.0
 40
0.025
  0
ARC
  5
173D
100
AcDbEntity
  8
VHH-025
100
AcDbCircle
 10
358.891734
 20
407.751541
 30
0.0
 40
0.75
100
AcDbArc
 50
270.0
 51
0.0
  0
LINE
  5
173E
100
AcDbEntity
  8
VHH-025
100
AcDbLine
 10
347.242223
 20
409.354619
 30
0.0
 11
349.95428
 21
409.354619
 31
0.0
  0
CIRCLE
  5
173F
100
AcDbEntity
  8
VHH-025
100
AcDbCircle
 10
372.391734
 20
412.751541
 30
0.0
 40
0.25
  0
LINE
  5
1740
100
AcDbEntity
  8
VHH-025
100
AcDbLine
 10
351.257434
 20
416.154619
 30
0.0
 11
348.545378
 21
416.154619
 31
0.0
  0
ARC
  5
1741
100
AcDbEntity
  8
VHH-025
100
AcDbCircle
 10
358.891734
 20
417.751541
 30
0.0
 40
0.75
100
AcDbArc
 50
0.0
 51
90.0
  0
LINE
  5
1742
100
AcDbEntity
  8
VHH-025
100
AcDbLine
 10
357.457434
 20
416.154619
 30
0.0
 11
354.745378
 21
416.154619
 31
0.0
  0
LINE
  5
1743
100
AcDbEntity
  8
VHH-025
100
AcDbLine
 10
467.390647
 20
421.7
 30
0.0
 11
477.255896
 21
421.7
 31
0.0
  0
LINE
  5
1744
100
AcDbEntity
  8
VHH-025
100
AcDbLine
 10
457.531939
 20
421.7
 30
0.0
 11
467.390647
 21
421.7
 31
0.0
  0
SPLINE
  5
1745
100
AcDbEntity
  8
VHH-025
100
AcDbSpline
210
0.0
220
0.0
230
-1.0
 70
     8
 71
     3
 72
    12
 73
     8
 74
     6
 42
0.0000001
 43
0.0000001
 44
0.0000000001
 40
0.0
 40
0.0
 40
0.0
 40
0.0
 40
0.460609787038649
 40
0.8428341308476516
 40
1.231136252854545
 40
1.532631450480557
 40
1.823032378360353
 40
1.823032378360353
 40
1.823032378360353
 40
1.823032378360353
 10
505.0199908675459
 20
420.1202051532491
 30
0.0
 10
505.0304149245834
 20
420.2740984375379
 30
0.0
 10
505.0494890982123
 20
420.5556958246469
 30
0.0
 10
505.213844059142
 20
420.9431231334712
 30
0.0
 10
505.4891427258788
 20
421.1909754753491
 30
0.0
 10
505.8016336360688
 20
421.3016695026372
 30
0.0
 10
505.9978854051253
 20
421.3243729721428
 30
0.0
 10
506.094172056408
 20
421.3355119344141
 30
0.0
 11
505.0199908675459
 21
420.1202051532491
 31
0.0
 11
505.0791710483173
 21
420.5769973183741
 31
0.0
 11
505.2364118312508
 21
420.9253804195468
 31
0.0
 11
505.5249873377398
 21
421.1851932656681
 31
0.0
 11
505.8071302414465
 21
421.291469961512
 31
0.0
 11
506.094172056408
 21
421.3355119344141
 31
0.0
  0
SPLINE
  5
1746
100
AcDbEntity
  8
VHH-025
100
AcDbSpline
210
0.0
220
0.0
230
-1.0
 70
     8
 71
     3
 72
    11
 73
     7
 74
     5
 42
0.0000001
 43
0.0000001
 44
0.0000000001
 40
0.0
 40
0.0
 40
0.0
 40
0.0
 40
0.7911843907099164
 40
1.600893155509014
 40
2.251444458122764
 40
2.582196256357145
 40
2.582196256357145
 40
2.582196256357145
 40
2.582196256357145
 10
502.6033645327917
 20
422.2385176264115
 30
0.0
 10
502.6468250118612
 20
422.5045943193712
 30
0.0
 10
502.7347635307381
 20
423.0429774846625
 30
0.0
 10
503.305464995934
 20
423.5992969230046
 30
0.0
 10
503.8571984002559
 20
423.8387947754956
 30
0.0
 10
504.176797797058
 20
423.9101023783372
 30
0.0
 10
504.2845199423519
 20
423.9341368666082
 30
0.0
 11
502.6033645327917
 21
422.2385176264115
 31
0.0
 11
502.8113825051478
 21
423.0018663431065
 31
0.0
 11
503.3703114677065
 21
423.5877218701825
 31
0.0
 11
503.963319136321
 21
423.8552268277008
 31
0.0
 11
504.2845199423519
 21
423.9341368666082
 31
0.0
  0
SPLINE
  5
1747
100
AcDbEntity
  8
VHH-025
100
AcDbSpline
210
0.0
220
0.0
230
-1.0
 70
     8
 71
     3
 72
    11
 73
     7
 74
     5
 42
0.0000001
 43
0.0000001
 44
0.0000000001
 40
0.0
 40
0.0
 40
0.0
 40
0.0
 40
0.3788822097076336
 40
0.7856242620079092
 40
1.206550869508587
 40
1.477512281568232
 40
1.477512281568232
 40
1.477512281568232
 40
1.477512281568232
 10
518.1198409287664
 20
421.9537630751856
 30
0.0
 10
518.2479731718578
 20
421.9545274824946
 30
0.0
 10
518.5136594361873
 20
421.9561125052605
 30
0.0
 10
518.8738939879595
 20
421.7049528597443
 30
0.0
 10
518.975558594687
 20
421.3335306680012
 30
0.0
 10
518.9779700465086
 20
421.1036668463561
 30
0.0
 10
518.9789144339994
 20
421.013646172586
 30
0.0
 11
518.1198409287664
 21
421.9537630751856
 31
0.0
 11
518.4969982899475
 21
421.9176513909296
 31
0.0
 11
518.8284769335588
 21
421.6819375688082
 31
0.0
 11
518.9666314371862
 21
421.2843290401906
 31
0.0
 11
518.9789144339994
 21
421.013646172586
 31
0.0
  0
ARC
  5
1748
100
AcDbEntity
  8
VHH-025
100
AcDbCircle
 10
519.24064
 20
422.143273
 30
0.0
 40
0.5
100
AcDbArc
 50
359.745727
 51
92.817949
  0
ARC
  5
1749
100
AcDbEntity
  8
VHH-025
100
AcDbCircle
 10
505.073191
 20
421.44592
 30
0.0
 40
0.5
100
AcDbArc
 50
92.817949
 51
179.819431
  0
LINE
  5
174A
100
AcDbEntity
  8
VHH-025
100
AcDbLine
 10
506.094172
 20
421.335512
 30
0.0
 11
518.119841
 21
421.953763
 31
0.0
  0
LINE
  5
174B
100
AcDbEntity
  8
VHH-025
100
AcDbLine
 10
505.048609
 20
421.945316
 30
0.0
 11
519.216059
 21
422.642668
 31
0.0
  0
LINE
  5
174C
100
AcDbEntity
  8
VHH-025
100
AcDbLine
 10
504.530319
 20
407.843345
 30
0.0
 11
504.573193
 21
421.447496
 31
0.0
  0
LINE
  5
17C9
100
AcDbEntity
  8
VHH-025
100
AcDbLine
 10
687.531937
 20
421.7
 30
0.0
 11
697.390645
 21
421.7
 31
0.0
  0
LWPOLYLINE
  5
17CA
100
AcDbEntity
  8
VHH-025
100
AcDbPolyline
 90
        4
 70
     1
 43
0.0
 10
524.112026
 20
402.235148
 10
524.862304
 20
402.235148
 10
524.862304
 20
397.970476
 10
524.112026
 20
397.970476
  0
LINE
  5
17CB
100
AcDbEntity
  8
VHH-025
100
AcDbLine
 10
545.892821
 20
440.676283
 30
0.0
 11
545.892821
 21
394.596587
 31
0.0
  0
LINE
  5
17CC
100
AcDbEntity
  8
VHH-025
100
AcDbLine
 10
527.607052
 20
423.405642
 30
0.0
 11
527.586056
 21
390.73208
 31
0.0
  0
LINE
  5
17CD
100
AcDbEntity
  8
VHH-025
100
AcDbLine
 10
528.305972
 20
423.44451
 30
0.0
 11
528.281925
 21
390.656147
 31
0.0
  0
LINE
  5
17CE
100
AcDbEntity
  8
VHH-025
100
AcDbLine
 10
542.392821
 20
446.919456
 30
0.0
 11
542.392821
 21
379.417767
 31
0.0
  0
LINE
  5
17CF
100
AcDbEntity
  8
VHH-025
100
AcDbLine
 10
618.895012
 20
440.676283
 30
0.0
 11
618.895012
 21
394.596587
 31
0.0
  0
LINE
  5
17D0
100
AcDbEntity
  8
VHH-025
100
AcDbLine
 10
622.395012
 20
446.919456
 30
0.0
 11
622.395012
 21
379.417767
 31
0.0
  0
LWPOLYLINE
  5
17D1
100
AcDbEntity
  8
VHH-025
100
AcDbPolyline
 90
        3
 70
     0
 43
0.0
 10
687.531937
 20
421.7
 10
685.295496
 20
421.7
 10
687.579068
 20
378.085357
  0
LINE
  5
17D2
100
AcDbEntity
  8
VHH-025
100
AcDbLine
 10
680.40997
 20
440.407869
 30
0.0
 11
682.689491
 21
359.2
 31
0.0
  0
SPLINE
  5
17D3
100
AcDbEntity
  8
VHH-025
100
AcDbSpline
210
0.0
220
0.0
230
1.0
 70
     8
 71
     3
 72
    13
 73
     9
 74
     7
 42
0.0000001
 43
0.0000001
 44
0.0000000001
 40
0.0
 40
0.0
 40
0.0
 40
0.0
 40
3.28447827110949
 40
5.848013776662059
 40
8.811210366641562
 40
13.31059109350662
 40
22.19952180646463
 40
44.15308546549832
 40
44.15308546549832
 40
44.15308546549832
 40
44.15308546549832
 10
622.3950118373833
 20
379.4177674662405
 30
0.0
 10
622.2468336065682
 20
378.3136587897743
 30
0.0
 10
621.9830022569047
 20
376.3477932190681
 30
0.0
 10
620.1848629031838
 20
373.9197369067371
 30
0.0
 10
617.3203616324181
 20
371.9983223500518
 30
0.0
 10
611.7129384811042
 20
371.8006041290067
 30
0.0
 10
600.0490720577801
 20
371.7017952914096
 30
0.0
 10
589.7366838159144
 20
371.6672750274954
 30
0.0
 10
582.396367270374
 20
371.6427036422428
 30
0.0
 11
622.3950118373833
 21
379.4177674662405
 31
0.0
 11
621.6572457373078
 21
376.2172208418387
 31
0.0
 11
620.1693589076586
 21
374.1296607659642
 31
0.0
 11
617.6919231328721
 21
372.5039775210871
 31
0.0
 11
613.2377536316218
 21
371.8677378025722
 31
0.0
 11
604.3497035717792
 21
371.7426164474727
 31
0.0
 11
582.396367270374
 21
371.6427036422428
 31
0.0
  0
SPLINE
  5
17D4
100
AcDbEntity
  8
VHH-025
100
AcDbSpline
210
0.0
220
0.0
230
1.0
 70
     8
 71
     3
 72
    13
 73
     9
 74
     0
 42
0.0000001
 43
0.0000001
 40
84.6955679326532
 40
84.6955679326532
 40
84.6955679326532
 40
84.6955679326532
 40
85.81548028374967
 40
86.6565862794542
 40
87.78626872105837
 40
90.14984869879972
 40
105.9639654671869
 40
122.7164926965437
 40
122.7164926965437
 40
122.7164926965437
 40
122.7164926965437
 10
618.8950118373833
 20
394.5965874588537
 30
0.0
 10
618.8538753716385
 20
394.2189825823033
 30
0.0
 10
618.7768159592689
 20
393.5572200834922
 30
0.0
 10
618.1734012384477
 20
392.6939072621289
 30
0.0
 10
616.99259513761
 20
391.7768441575299
 30
0.0
 10
610.2560197419844
 20
391.9075542287346
 30
0.0
 10
598.9215779246789
 20
392.066341626607
 30
0.0
 10
588.0079625290274
 20
392.2371169104135
 30
0.0
 10
582.3939164793629
 20
392.3249650040716
 30
0.0
  0
LINE
  5
17D5
100
AcDbEntity
  8
VHH-025
100
AcDbLine
 10
573.392821
 20
340.415399
 30
0.0
 11
591.392821
 21
340.415399
 31
0.0
  0
SPLINE
  5
17D6
100
AcDbEntity
  8
VHH-025
100
AcDbSpline
210
0.0
220
0.0
230
1.0
 70
     8
 71
     3
 72
    12
 73
     8
 74
     0
 42
0.0000001
 43
0.0000001
 40
1.820596868471746
 40
1.820596868471746
 40
1.820596868471746
 40
1.820596868471746
 40
4.503295473557569
 40
6.216955522489968
 40
7.774552440697402
 40
9.232972112989187
 40
10.8164521343443
 40
10.8164521343443
 40
10.8164521343443
 40
10.8164521343443
 10
574.7858421659494
 20
384.6333369542235
 30
0.0
 10
575.248662631957
 20
384.6479974493222
 30
0.0
 10
575.9606477611669
 20
384.7817068106942
 30
0.0
 10
576.6697391671369
 20
385.5649230906037
 30
0.0
 10
576.723172697457
 20
386.4671833980137
 30
0.0
 10
576.0013337565798
 20
386.9518270163971
 30
0.0
 10
575.4920756569373
 20
386.9539290813463
 30
0.0
 10
575.2269781495562
 20
386.955023324479
 30
0.0
  0
SPLINE
  5
17D7
100
AcDbEntity
  8
VHH-025
100
AcDbSpline
210
0.0
220
0.0
230
1.0
 70
     8
 71
     3
 72
    12
 73
     8
 74
     0
 42
0.0000001
 43
0.0000001
 40
0.3004138362153372
 40
0.3004138362153372
 40
0.3004138362153372
 40
0.3004138362153372
 40
0.6531836346659445
 40
2.201425060069765
 40
3.775834883110177
 40
5.170639203720888
 40
5.549375987942882
 40
5.549375987942882
 40
5.549375987942882
 40
5.549375987942882
 10
576.0040987971152
 20
382.7571220457448
 30
0.0
 10
575.9941845083305
 20
382.8152425106727
 30
0.0
 10
575.9469738612316
 20
383.1276352444983
 30
0.0
 10
575.9938058311128
 20
383.6814488339277
 30
0.0
 10
575.8518755285696
 20
384.5627740513155
 30
0.0
 10
575.2157392255795
 20
384.6342724435162
 30
0.0
 10
574.9073162764017
 20
384.6320828407933
 30
0.0
 10
574.7858421659494
 20
384.6333369542235
 30
0.0
  0
SPLINE
  5
17D8
100
AcDbEntity
  8
VHH-025
100
AcDbSpline
210
0.0
220
0.0
230
1.0
 70
     8
 71
     3
 72
    12
 73
     8
 74
     6
 42
0.0000001
 43
0.0000001
 44
0.0000000001
 40
0.0
 40
0.0
 40
0.0
 40
0.0
 40
1.006217164968555
 40
1.679832645748139
 40
2.564456909786993
 40
3.472698377671032
 40
4.209033191014381
 40
4.209033191014381
 40
4.209033191014381
 40
4.209033191014381
 10
568.5829453319349
 20
378.7082166641557
 30
0.0
 10
568.9357970766559
 20
378.6994300335586
 30
0.0
 10
569.5248666140555
 20
378.6847611634211
 30
0.0
 10
570.1183860070375
 20
377.9352203537978
 30
0.0
 10
569.9172235315452
 20
377.0334711668577
 30
0.0
 10
569.2097764093672
 20
376.4616863917049
 30
0.0
 10
568.6546207848858
 20
376.422553759933
 30
0.0
 10
568.4060580287551
 20
376.4050327002896
 30
0.0
 11
568.5829453319349
 21
378.7082166641557
 31
0.0
 11
569.5696373666724
 21
378.5109558934418
 31
0.0
 11
569.9784050048439
 21
377.9755431237681
 31
0.0
 11
569.832658665464
 21
377.1030076843253
 31
0.0
 11
569.1326722131836
 21
376.5242836303859
 31
0.0
 11
568.4060580287551
 21
376.4050327002896
 31
0.0
  0
SPLINE
  5
17D9
100
AcDbEntity
  8
VHH-025
100
AcDbSpline
210
0.0
220
0.0
230
-1.0
 70
     8
 71
     3
 72
    12
 73
     8
 74
     6
 42
0.0000001
 43
0.0000001
 44
0.0000000001
 40
0.0
 40
0.0
 40
0.0
 40
0.0
 40
1.411106911326524
 40
2.125038086022383
 40
2.805834388318013
 40
3.53504422446247
 40
4.326784235140932
 40
4.326784235140932
 40
4.326784235140932
 40
4.326784235140932
 10
568.1663746434025
 20
378.7082166641557
 30
0.0
 10
568.6425639826285
 20
378.7172704845928
 30
0.0
 10
569.3596751199144
 20
378.7309049676348
 30
0.0
 10
570.2053168672818
 20
379.3087114544614
 30
0.0
 10
570.2059147789519
 20
380.1470776302642
 30
0.0
 10
569.5151039344832
 20
380.596531956834
 30
0.0
 10
569.0058070480833
 20
380.6007422726434
 30
0.0
 10
568.7406893500084
 20
380.6029339790238
 30
0.0
 11
568.1663746434025
 21
378.7082166641557
 31
0.0
 11
569.5611429785168
 21
378.9223287996264
 31
0.0
 11
570.1052654902634
 21
379.3845283392338
 31
0.0
 11
570.1026738041001
 21
380.0653197084375
 31
0.0
 11
569.5273467603985
 21
380.5133663331489
 31
0.0
 11
568.7406893500084
 21
380.6029339790238
 31
0.0
  0
SPLINE
  5
17DA
100
AcDbEntity
  8
VHH-025
100
AcDbSpline
210
0.0
220
0.0
230
-1.0
 70
     8
 71
     3
 72
    12
 73
     8
 74
     6
 42
0.0000001
 43
0.0000001
 44
0.0000000001
 40
0.0
 40
0.0
 40
0.0
 40
0.0
 40
1.411106911324726
 40
2.125038086019199
 40
2.805834388314815
 40
3.535044224462143
 40
4.326784235138798
 40
4.326784235138798
 40
4.326784235138798
 40
4.326784235138798
 10
569.4852987596497
 20
385.0603060096109
 30
0.0
 10
569.9614880988756
 20
385.0693598300479
 30
0.0
 10
570.678599236161
 20
385.0829943130897
 30
0.0
 10
571.5242409835239
 20
385.6608007999172
 30
0.0
 10
571.5248388952009
 20
386.499166975721
 30
0.0
 10
570.8340280507274
 20
386.9486213022879
 30
0.0
 10
570.3247311643276
 20
386.9528316180981
 30
0.0
 10
570.0596134662538
 20
386.955023324479
 30
0.0
 11
569.4852987596497
 21
385.0603060096109
 31
0.0
 11
570.8800670947622
 21
385.2744181450816
 31
0.0
 11
571.4241896065069
 21
385.736617684689
 31
0.0
 11
571.4215979203474
 21
386.4174090538927
 31
0.0
 11
570.846270876642
 21
386.865455678604
 31
0.0
 11
570.0596134662538
 21
386.955023324479
 31
0.0
  0
SPLINE
  5
17DB
100
AcDbEntity
  8
VHH-025
100
AcDbSpline
210
0.0
220
0.0
230
1.0
 70
     8
 71
     3
 72
    12
 73
     8
 74
     6
 42
0.0000001
 43
0.0000001
 44
0.0000000001
 40
0.0
 40
0.0
 40
0.0
 40
0.0
 40
1.006217164968555
 40
1.679832645747035
 40
2.564456909785589
 40
3.472698377669629
 40
4.209033191012977
 40
4.209033191012977
 40
4.209033191012977
 40
4.209033191012977
 10
569.9018694481802
 20
385.0603060096109
 30
0.0
 10
570.2547211929016
 20
385.051519379014
 30
0.0
 10
570.8437907303016
 20
385.036850508877
 30
0.0
 10
571.4373101232803
 20
384.2873096992525
 30
0.0
 10
571.236147647791
 20
383.3855605123127
 30
0.0
 10
570.5287005256125
 20
382.8137757371602
 30
0.0
 10
569.9735449011312
 20
382.7746431053881
 30
0.0
 10
569.7249821450006
 20
382.7571220457448
 30
0.0
 11
569.9018694481802
 21
385.0603060096109
 31
0.0
 11
570.8885614829179
 21
384.863045238897
 31
0.0
 11
571.2973291210874
 21
384.3276324692233
 31
0.0
 11
571.1515827817094
 21
383.4550970297805
 31
0.0
 11
570.451596329429
 21
382.8763729758411
 31
0.0
 11
569.7249821450006
 21
382.7571220457448
 31
0.0
  0
SPLINE
  5
17DC
100
AcDbEntity
  8
VHH-025
100
AcDbSpline
210
0.0
220
0.0
230
1.0
 70
    11
 71
     3
 72
    15
 73
    11
 74
     9
 42
0.0000001
 43
0.0000001
 44
0.0000000001
 40
0.0
 40
0.0
 40
0.0
 40
0.0
 40
0.5147647394070095
 40
2.457789820814682
 40
3.944434646996009
 40
5.591791425459506
 40
7.10451629126322
 40
9.337163693807024
 40
10.73578930127772
 40
12.20445453441465
 40
12.20445453441465
 40
12.20445453441465
 40
12.20445453441465
 10
571.9457246391413
 20
379.0242162485228
 30
0.0
 10
572.0100255305676
 20
379.1825929530062
 30
0.0
 10
572.3170358292898
 20
379.9387765497729
 30
0.0
 10
573.570263715159
 20
380.9030339837352
 30
0.0
 10
575.4083728483926
 20
380.1774958629282
 30
0.0
 10
575.7414216631214
 20
378.4474845534907
 30
0.0
 10
574.9801076496236
 20
376.7484929961639
 30
0.0
 10
572.8912114697232
 20
376.0077180773013
 30
0.0
 10
571.6031614188625
 20
377.5563404946078
 30
0.0
 10
571.8296924000646
 20
378.5270206935692
 30
0.0
 10
571.9457246391413
 20
379.0242162485228
 30
0.0
 11
571.9457246391413
 21
379.0242162485228
 31
0.0
 11
572.1594145365035
 21
379.4925317027864
 31
0.0
 11
573.7640563745809
 21
380.5881917953657
 31
0.0
 11
575.1454172898303
 21
380.0386875997192
 31
0.0
 11
575.5682836856614
 21
378.4465292009326
 31
0.0
 11
574.9198881676094
 21
377.079810586224
 31
0.0
 11
572.7632712488886
 21
376.5021273772136
 31
0.0
 11
571.847056002338
 21
377.5588691677476
 31
0.0
 11
571.9457246391413
 21
379.0242162485228
 31
0.0
  0
SPLINE
  5
17DD
100
AcDbEntity
  8
VHH-025
100
AcDbSpline
210
0.0
220
0.0
230
1.0
 70
     8
 71
     3
 72
    20
 73
    16
 74
     0
 42
0.0000001
 43
0.0000001
 40
0.0
 40
0.0
 40
0.0
 40
0.0
 40
0.3918367249981683
 40
0.3918367249981683
 40
0.6525501684806338
 40
0.6525501684806338
 40
1.182440120300543
 40
1.182440120300543
 40
1.712330072120452
 40
1.712330072120452
 40
2.006270928035041
 40
2.006270928035041
 40
2.315289501487082
 40
2.315289501487082
 40
2.616402084268149
 40
2.616402084268149
 40
2.616402084268149
 40
2.616402084268149
 10
526.4969872010334
 20
389.6448793183244
 30
0.0
 10
526.6275845590718
 20
389.6652047948719
 30
0.0
 10
526.7397665977461
 20
389.6834693973924
 30
0.0
 10
526.8893800620118
 20
389.7193358176973
 30
0.0
 10
526.9390863075824
 20
389.7348291204525
 30
0.0
 10
527.061902764488
 20
389.7841206296579
 30
0.0
 10
527.1465065656976
 20
389.8366299244717
 30
0.0
 10
527.3072472722561
 20
389.9782206218096
 30
0.0
 10
527.3805347131639
 20
390.0656042831997
 30
0.0
 10
527.4649580079205
 20
390.2052175410244
 30
0.0
 10
527.4896201990451
 20
390.255966609835
 30
0.0
 10
527.528112206359
 20
390.3581088020209
 30
0.0
 10
527.5408234238349
 20
390.4062883098104
 30
0.0
 10
527.5652841033353
 20
390.5462616220848
 30
0.0
 10
527.5751079819129
 20
390.6317513268877
 30
0.0
 10
527.5860558773948
 20
390.7320804753008
 30
0.0
  0
SPLINE
  5
17DE
100
AcDbEntity
  8
VHH-025
100
AcDbSpline
210
0.0
220
0.0
230
1.0
 70
     8
 71
     3
 72
    11
 73
     7
 74
     5
 42
0.0000001
 43
0.0000001
 44
0.0000000001
 40
0.0
 40
0.0
 40
0.0
 40
0.0
 40
0.6629926957091156
 40
1.324539577355201
 40
2.135160944775842
 40
2.616402084269122
 40
2.616402084269122
 40
2.616402084269122
 40
2.616402084269122
 10
526.6046355327127
 20
388.9532061030804
 30
0.0
 10
526.8256079146651
 20
388.9875970665304
 30
0.0
 10
527.2670707954672
 20
389.0563039957129
 30
0.0
 10
527.8653529199028
 20
389.4821643961865
 30
0.0
 10
528.2174584715424
 20
390.0653584337161
 30
0.0
 10
528.2644281981894
 20
390.4958003102692
 30
0.0
 10
528.2819252341761
 20
390.6561473580777
 30
0.0
 11
526.6046355327127
 21
388.9532061030804
 31
0.0
 11
527.249934110374
 21
389.1053542553263
 31
0.0
 11
527.793867679804
 21
389.4818918346763
 31
0.0
 11
528.2036382177595
 21
390.1813166752008
 31
0.0
 11
528.2819252341761
 21
390.6561473580777
 31
0.0
  0
SPLINE
  5
17DF
100
AcDbEntity
  8
VHH-025
100
AcDbSpline
210
0.0
220
0.0
230
1.0
 70
     8
 71
     3
 72
    13
 73
     9
 74
     7
 42
0.0000001
 43
0.0000001
 44
0.0000000001
 40
0.0
 40
0.0
 40
0.0
 40
0.0
 40
3.284478271109898
 40
5.848013776661412
 40
8.811210366642434
 40
13.31059109350569
 40
22.1995218064637
 40
44.1530854654974
 40
44.1530854654974
 40
44.1530854654974
 40
44.1530854654974
 10
542.3928211213443
 20
379.4177674662405
 30
0.0
 10
542.5409993521602
 20
378.3136587897744
 30
0.0
 10
542.8048307018254
 20
376.3477932190689
 30
0.0
 10
544.6029700555437
 20
373.9197369067359
 30
0.0
 10
547.4674713263109
 20
371.9983223500528
 30
0.0
 10
553.0748944776235
 20
371.800604129006
 30
0.0
 10
564.7387609009483
 20
371.7017952914103
 30
0.0
 10
575.0511491428135
 20
371.6672750274957
 30
0.0
 10
582.3914656883536
 20
371.6427036422428
 30
0.0
 11
542.3928211213443
 21
379.4177674662405
 31
0.0
 11
543.1305872214217
 21
376.2172208418387
 31
0.0
 11
544.618474051069
 21
374.1296607659642
 31
0.0
 11
547.0959098258573
 21
372.5039775210871
 31
0.0
 11
551.5500793271058
 21
371.8677378025722
 31
0.0
 11
560.4381293869484
 21
371.7426164474727
 31
0.0
 11
582.3914656883536
 21
371.6427036422428
 31
0.0
  0
SPLINE
  5
17E0
100
AcDbEntity
  8
VHH-025
100
AcDbSpline
210
0.0
220
0.0
230
1.0
 70
     8
 71
     3
 72
    13
 73
     9
 74
     0
 42
0.0000001
 43
0.0000001
 40
84.6955679326532
 40
84.6955679326532
 40
84.6955679326532
 40
84.6955679326532
 40
85.81548028374967
 40
86.6565862794542
 40
87.78626872105837
 40
90.14984869879972
 40
105.9639654671869
 40
122.7164926965437
 40
122.7164926965437
 40
122.7164926965437
 40
122.7164926965437
 10
545.8928211213443
 20
394.5965874588537
 30
0.0
 10
545.9339575870891
 20
394.2189825823033
 30
0.0
 10
546.0110169994587
 20
393.5572200834922
 30
0.0
 10
546.6144317202799
 20
392.6939072621289
 30
0.0
 10
547.7952378211177
 20
391.7768441575299
 30
0.0
 10
554.5318132167432
 20
391.9075542287346
 30
0.0
 10
565.8662550340487
 20
392.066341626607
 30
0.0
 10
576.7798704296985
 20
392.2371169104135
 30
0.0
 10
582.3939164793629
 20
392.3249650040716
 30
0.0
  0
LINE
  5
17E1
100
AcDbEntity
  8
VHH-025
100
AcDbLine
 10
561.104266
 20
387.455023
 30
0.0
 11
558.70607
 21
375.905033
 31
0.0
  0
LINE
  5
17E2
100
AcDbEntity
  8
VHH-025
100
AcDbLine
 10
559.139591
 20
387.455023
 30
0.0
 11
556.741395
 21
375.905033
 31
0.0
  0
LINE
  5
17E3
100
AcDbEntity
  8
VHH-025
100
AcDbLine
 10
586.258128
 20
386.955023
 30
0.0
 11
584.13288
 21
382.757122
 31
0.0
  0
LINE
  5
17E4
100
AcDbEntity
  8
VHH-025
100
AcDbLine
 10
584.827034
 20
380.602934
 30
0.0
 11
585.514899
 21
376.405033
 31
0.0
  0
LINE
  5
17E5
100
AcDbEntity
  8
VHH-025
100
AcDbLine
 10
584.521785
 20
380.602934
 30
0.0
 11
584.827034
 21
380.602934
 31
0.0
  0
LINE
  5
17E6
100
AcDbEntity
  8
VHH-025
100
AcDbLine
 10
566.930469
 20
378.708217
 30
0.0
 11
568.582945
 21
378.708217
 31
0.0
  0
LINE
  5
17E7
100
AcDbEntity
  8
VHH-025
100
AcDbLine
 10
566.452245
 20
376.405033
 30
0.0
 11
568.406058
 21
376.405033
 31
0.0
  0
LINE
  5
17E8
100
AcDbEntity
  8
VHH-025
100
AcDbLine
 10
567.323881
 20
380.602934
 30
0.0
 11
568.740689
 21
380.602934
 31
0.0
  0
LINE
  5
17E9
100
AcDbEntity
  8
VHH-025
100
AcDbLine
 10
567.323881
 20
380.602934
 30
0.0
 11
566.452245
 21
376.405033
 31
0.0
  0
LINE
  5
17EA
100
AcDbEntity
  8
VHH-025
100
AcDbLine
 10
566.212419
 20
387.455023
 30
0.0
 11
563.814224
 21
375.905033
 31
0.0
  0
LINE
  5
17EB
100
AcDbEntity
  8
VHH-025
100
AcDbLine
 10
563.461876
 20
387.455023
 30
0.0
 11
561.06368
 21
375.905033
 31
0.0
  0
LINE
  5
17EC
100
AcDbEntity
  8
VHH-025
100
AcDbLine
 10
583.248673
 20
386.955023
 30
0.0
 11
583.61508
 21
382.757122
 31
0.0
  0
LINE
  5
17ED
100
AcDbEntity
  8
VHH-025
100
AcDbLine
 10
578.682865
 20
383.558711
 30
0.0
 11
581.520654
 21
383.558711
 31
0.0
  0
LINE
  5
17EE
100
AcDbEntity
  8
VHH-025
100
AcDbLine
 10
578.216489
 20
382.757122
 30
0.0
 11
580.658888
 21
386.955023
 31
0.0
  0
LINE
  5
17EF
100
AcDbEntity
  8
VHH-025
100
AcDbLine
 10
580.658888
 20
386.955023
 30
0.0
 11
580.964138
 21
386.955023
 31
0.0
  0
LINE
  5
17F0
100
AcDbEntity
  8
VHH-025
100
AcDbLine
 10
580.964138
 20
386.955023
 30
0.0
 11
581.652002
 21
382.757122
 31
0.0
  0
LINE
  5
17F1
100
AcDbEntity
  8
VHH-025
100
AcDbLine
 10
579.832474
 20
376.405033
 30
0.0
 11
580.158708
 21
376.405033
 31
0.0
  0
LINE
  5
17F2
100
AcDbEntity
  8
VHH-025
100
AcDbLine
 10
577.847119
 20
380.602934
 30
0.0
 11
578.111543
 21
380.602934
 31
0.0
  0
LINE
  5
17F3
100
AcDbEntity
  8
VHH-025
100
AcDbLine
 10
581.030344
 20
380.602934
 30
0.0
 11
580.158708
 21
376.405033
 31
0.0
  0
LINE
  5
17F4
100
AcDbEntity
  8
VHH-025
100
AcDbLine
 10
578.111543
 20
380.602934
 30
0.0
 11
579.832474
 21
376.405033
 31
0.0
  0
LINE
  5
17F5
100
AcDbEntity
  8
VHH-025
100
AcDbLine
 10
577.847119
 20
380.602934
 30
0.0
 11
576.975482
 21
376.405033
 31
0.0
  0
LINE
  5
17F6
100
AcDbEntity
  8
VHH-025
100
AcDbLine
 10
568.249393
 20
385.060306
 30
0.0
 11
569.901869
 21
385.060306
 31
0.0
  0
LINE
  5
17F7
100
AcDbEntity
  8
VHH-025
100
AcDbLine
 10
568.642805
 20
386.955023
 30
0.0
 11
570.059613
 21
386.955023
 31
0.0
  0
LINE
  5
17F8
100
AcDbEntity
  8
VHH-025
100
AcDbLine
 10
568.642805
 20
386.955023
 30
0.0
 11
567.771169
 21
382.757122
 31
0.0
  0
LINE
  5
17F9
100
AcDbEntity
  8
VHH-025
100
AcDbLine
 10
567.771169
 20
382.757122
 30
0.0
 11
569.724982
 21
382.757122
 31
0.0
  0
LINE
  5
17FA
100
AcDbEntity
  8
VHH-025
100
AcDbLine
 10
572.879323
 20
382.757122
 30
0.0
 11
573.75096
 21
386.955023
 31
0.0
  0
LINE
  5
17FB
100
AcDbEntity
  8
VHH-025
100
AcDbLine
 10
573.268893
 20
384.633337
 30
0.0
 11
574.785842
 21
384.633337
 31
0.0
  0
LINE
  5
17FC
100
AcDbEntity
  8
VHH-025
100
AcDbLine
 10
573.75096
 20
386.955023
 30
0.0
 11
575.226978
 21
386.955023
 31
0.0
  0
LINE
  5
17FD
100
AcDbEntity
  8
VHH-025
100
AcDbLine
 10
583.61508
 20
382.757122
 30
0.0
 11
584.13288
 21
382.757122
 31
0.0
  0
LINE
  5
17FE
100
AcDbEntity
  8
VHH-025
100
AcDbLine
 10
582.079386
 20
376.405033
 30
0.0
 11
584.521785
 21
380.602934
 31
0.0
  0
LINE
  5
17FF
100
AcDbEntity
  8
VHH-025
100
AcDbLine
 10
582.545762
 20
377.206622
 30
0.0
 11
585.383551
 21
377.206622
 31
0.0
  0
SPLINE
  5
1800
100
AcDbEntity
  8
VHH-025
100
AcDbSpline
210
0.0
220
0.0
230
1.0
 70
    11
 71
     3
 72
    15
 73
    11
 74
     9
 42
0.0000001
 43
0.0000001
 44
0.0000000001
 40
0.0
 40
0.0
 40
0.0
 40
0.0
 40
0.5147647394070095
 40
2.457789820814682
 40
3.944434646996009
 40
5.59179142545904
 40
7.104516291262754
 40
9.337163693806559
 40
10.73578930127726
 40
12.20445453441431
 40
12.20445453441431
 40
12.20445453441431
 40
12.20445453441431
 10
593.9563220280034
 20
385.3701369677583
 30
0.0
 10
594.0206229194298
 20
385.5285136722417
 30
0.0
 10
594.3276332181519
 20
386.2846972690083
 30
0.0
 10
595.5808611040212
 20
387.2489547029707
 30
0.0
 10
597.4189702372548
 20
386.5234165821638
 30
0.0
 10
597.7520190519812
 20
384.7934052727259
 30
0.0
 10
596.990705038484
 20
383.0944137153995
 30
0.0
 10
594.9018088585837
 20
382.3536387965367
 30
0.0
 10
593.6137588077222
 20
383.9022612138433
 30
0.0
 10
593.8402897889259
 20
384.8729414128046
 30
0.0
 10
593.9563220280034
 20
385.3701369677583
 30
0.0
 11
593.9563220280034
 21
385.3701369677583
 31
0.0
 11
594.1700119253656
 21
385.8384524220218
 31
0.0
 11
595.7746537634431
 21
386.9341125146011
 31
0.0
 11
597.1560146786925
 21
386.3846083189546
 31
0.0
 11
597.5788810745217
 21
384.7924499201681
 31
0.0
 11
596.9304855564697
 21
383.4257313054595
 31
0.0
 11
594.7738686377489
 21
382.848048096449
 31
0.0
 11
593.8576533911983
 21
383.904789886983
 31
0.0
 11
593.9563220280034
 21
385.3701369677583
 31
0.0
  0
SPLINE
  5
1801
100
AcDbEntity
  8
VHH-025
100
AcDbSpline
210
0.0
220
0.0
230
1.0
 70
     8
 71
     3
 72
    12
 73
     8
 74
     0
 42
0.0000001
 43
0.0000001
 40
1.820596868471746
 40
1.820596868471746
 40
1.820596868471746
 40
1.820596868471746
 40
4.503295473557569
 40
6.216955522489968
 40
7.774552440697402
 40
9.232972112989187
 40
10.8164521343443
 40
10.8164521343443
 40
10.8164521343443
 40
10.8164521343443
 10
600.8552384168052
 20
384.6333369542235
 30
0.0
 10
601.3180588828127
 20
384.6479974493222
 30
0.0
 10
602.0300440120228
 20
384.7817068106942
 30
0.0
 10
602.7391354179927
 20
385.5649230906037
 30
0.0
 10
602.7925689483128
 20
386.4671833980137
 30
0.0
 10
602.0707300074356
 20
386.9518270163971
 30
0.0
 10
601.5614719077931
 20
386.9539290813463
 30
0.0
 10
601.2963744004119
 20
386.955023324479
 30
0.0
  0
SPLINE
  5
1802
100
AcDbEntity
  8
VHH-025
100
AcDbSpline
210
0.0
220
0.0
230
1.0
 70
     8
 71
     3
 72
    12
 73
     8
 74
     0
 42
0.0000001
 43
0.0000001
 40
0.3004138362153372
 40
0.3004138362153372
 40
0.3004138362153372
 40
0.3004138362153372
 40
0.6531836346659445
 40
2.201425060069765
 40
3.775834883110177
 40
5.170639203720888
 40
5.549375987942882
 40
5.549375987942882
 40
5.549375987942882
 40
5.549375987942882
 10
602.073495047971
 20
382.7571220457448
 30
0.0
 10
602.0635807591863
 20
382.8152425106727
 30
0.0
 10
602.0163701120874
 20
383.1276352444983
 30
0.0
 10
602.0632020819686
 20
383.6814488339277
 30
0.0
 10
601.9212717794253
 20
384.5627740513155
 30
0.0
 10
601.2851354764353
 20
384.6342724435162
 30
0.0
 10
600.9767125272575
 20
384.6320828407933
 30
0.0
 10
600.8552384168052
 20
384.6333369542235
 30
0.0
  0
CIRCLE
  5
1803
100
AcDbEntity
  8
VHH-025
100
AcDbCircle
 10
605.436105
 20
386.461906
 30
0.0
 40
0.724411
  0
LINE
  5
1804
100
AcDbEntity
  8
VHH-025
100
AcDbLine
 10
599.820356
 20
386.955023
 30
0.0
 11
601.296374
 21
386.955023
 31
0.0
  0
LINE
  5
1805
100
AcDbEntity
  8
VHH-025
100
AcDbLine
 10
599.33829
 20
384.633337
 30
0.0
 11
600.855238
 21
384.633337
 31
0.0
  0
LINE
  5
1806
100
AcDbEntity
  8
VHH-025
100
AcDbLine
 10
597.799137
 20
380.602934
 30
0.0
 11
602.314966
 21
380.602934
 31
0.0
  0
LINE
  5
1807
100
AcDbEntity
  8
VHH-025
100
AcDbLine
 10
598.94872
 20
382.757122
 30
0.0
 11
599.820356
 21
386.955023
 31
0.0
  0
LINE
  5
1808
100
AcDbEntity
  8
VHH-025
100
AcDbLine
 10
589.673647
 20
382.757122
 30
0.0
 11
592.820194
 21
382.757122
 31
0.0
  0
LINE
  5
1809
100
AcDbEntity
  8
VHH-025
100
AcDbLine
 10
588.448896
 20
386.955023
 30
0.0
 11
587.581589
 21
382.757122
 31
0.0
  0
LINE
  5
180A
100
AcDbEntity
  8
VHH-025
100
AcDbLine
 10
590.544406
 20
386.971731
 30
0.0
 11
589.673647
 21
382.757122
 31
0.0
  0
LINE
  5
180B
100
AcDbEntity
  8
VHH-025
100
AcDbLine
 10
591.90789
 20
380.602934
 30
0.0
 11
592.81765
 21
380.602934
 31
0.0
  0
LINE
  5
180C
100
AcDbEntity
  8
VHH-025
100
AcDbLine
 10
599.174098
 20
376.37532
 30
0.0
 11
600.051455
 21
380.602934
 31
0.0
  0
LINE
  5
180D
100
AcDbEntity
  8
VHH-025
100
AcDbLine
 10
589.544489
 20
376.405033
 30
0.0
 11
589.679116
 21
376.405033
 31
0.0
  0
LINE
  5
180E
100
AcDbEntity
  8
VHH-025
100
AcDbLine
 10
592.81765
 20
380.602934
 30
0.0
 11
591.934658
 21
376.405033
 31
0.0
  0
LINE
  5
180F
100
AcDbEntity
  8
VHH-025
100
AcDbLine
 10
588.322611
 20
380.602934
 30
0.0
 11
587.439619
 21
376.405033
 31
0.0
  0
LINE
  5
1810
100
AcDbEntity
  8
VHH-025
100
AcDbLine
 10
591.90789
 20
380.602934
 30
0.0
 11
589.679116
 21
376.405033
 31
0.0
  0
LINE
  5
1811
100
AcDbEntity
  8
VHH-025
100
AcDbLine
 10
589.224724
 20
380.602934
 30
0.0
 11
589.544489
 21
376.405033
 31
0.0
  0
LINE
  5
1812
100
AcDbEntity
  8
VHH-025
100
AcDbLine
 10
594.262924
 20
377.206622
 30
0.0
 11
597.100713
 21
377.206622
 31
0.0
  0
LINE
  5
1813
100
AcDbEntity
  8
VHH-025
100
AcDbLine
 10
593.796548
 20
376.405033
 30
0.0
 11
596.238946
 21
380.602934
 31
0.0
  0
LINE
  5
1814
100
AcDbEntity
  8
VHH-025
100
AcDbLine
 10
596.238946
 20
380.602934
 30
0.0
 11
596.544196
 21
380.602934
 31
0.0
  0
LINE
  5
1815
100
AcDbEntity
  8
VHH-025
100
AcDbLine
 10
596.544196
 20
380.602934
 30
0.0
 11
597.232061
 21
376.405033
 31
0.0
  0
LINE
  5
1816
100
AcDbEntity
  8
VHH-025
100
AcDbLine
 10
588.322611
 20
380.602934
 30
0.0
 11
589.224724
 21
380.602934
 31
0.0
  0
CIRCLE
  5
1817
100
AcDbEntity
  8
VHH-025
100
AcDbCircle
 10
604.488128
 20
380.207773
 30
0.0
 40
0.724411
  0
LINE
  5
1818
100
AcDbEntity
  8
VHH-025
100
AcDbLine
 10
677.892821
 20
345.3
 30
0.0
 11
674.492821
 21
345.3
 31
0.0
  0
LINE
  5
1819
100
AcDbEntity
  8
VHH-025
100
AcDbLine
 10
674.244293
 20
345.9
 30
0.0
 11
677.892821
 21
345.9
 31
0.0
  0
LINE
  5
181A
100
AcDbEntity
  8
VHH-025
100
AcDbLine
 10
654.494419
 20
347.9
 30
0.0
 11
678.078372
 21
347.9
 31
0.0
  0
LWPOLYLINE
  5
181B
100
AcDbEntity
  8
VHH-025
100
AcDbPolyline
 90
        6
 70
     0
 43
0.0
 10
662.381398
 20
346.5
 10
662.379849
 20
346.499999
 10
662.010349
 20
346.428614
 10
661.685581
 20
346.21822
 10
661.465005
 20
345.90028
 10
661.381649
 20
345.522402
  0
LINE
  5
181C
100
AcDbEntity
  8
VHH-025
100
AcDbLine
 10
673.492821
 20
344.3
 30
0.0
 11
664.492821
 21
344.3
 31
0.0
  0
LINE
  5
181D
100
AcDbEntity
  8
VHH-025
100
AcDbLine
 10
673.244293
 20
344.9
 30
0.0
 11
664.492821
 21
344.9
 31
0.0
  0
LINE
  5
181E
100
AcDbEntity
  8
VHH-025
100
AcDbLine
 10
664.492821
 20
345.9
 30
0.0
 11
674.244293
 21
345.9
 31
0.0
  0
LINE
  5
181F
100
AcDbEntity
  8
VHH-025
100
AcDbLine
 10
664.492821
 20
344.9
 30
0.0
 11
664.492821
 21
345.9
 31
0.0
  0
LINE
  5
1820
100
AcDbEntity
  8
VHH-025
100
AcDbLine
 10
664.492821
 20
344.3
 30
0.0
 11
664.492821
 21
344.9
 31
0.0
  0
LINE
  5
1821
100
AcDbEntity
  8
VHH-025
100
AcDbLine
 10
669.528362
 20
346.5
 30
0.0
 11
669.528362
 21
347.1
 31
0.0
  0
LINE
  5
1822
100
AcDbEntity
  8
VHH-025
100
AcDbLine
 10
674.244293
 20
345.9
 30
0.0
 11
673.244293
 21
344.9
 31
0.0
  0
LINE
  5
1823
100
AcDbEntity
  8
VHH-025
100
AcDbLine
 10
674.492821
 20
345.3
 30
0.0
 11
673.492821
 21
344.3
 31
0.0
  0
SPLINE
  5
1824
100
AcDbEntity
  8
VHH-025
100
AcDbSpline
210
0.0
220
0.0
230
1.0
 70
     8
 71
     3
 72
    11
 73
     7
 74
     5
 42
0.0000001
 43
0.0000001
 44
0.0000000001
 40
0.0
 40
0.0
 40
0.0
 40
0.0
 40
0.6501585836432341
 40
1.328696847749696
 40
2.007498148689249
 40
2.665365116565286
 40
2.665365116565286
 40
2.665365116565286
 40
2.665365116565286
 10
692.509180521729
 20
349.479886350683
 30
0.0
 10
692.4706911587937
 20
349.2617176408115
 30
0.0
 10
692.3920323569401
 20
348.8158570702112
 30
0.0
 10
691.9016280405806
 20
348.3199186768729
 30
0.0
 10
691.3138843587906
 20
347.9706116462886
 30
0.0
 10
690.8655341931975
 20
347.9232902761233
 30
0.0
 10
690.6448700457295
 20
347.9000001546828
 30
0.0
 11
692.509180521729
 21
349.479886350683
 31
0.0
 11
692.3348298182864
 21
348.853541384954
 31
0.0
 11
691.8856249092879
 21
348.3449854631635
 31
0.0
 11
691.2926907673901
 21
348.0145307619877
 31
0.0
 11
690.6448700457295
 21
347.9000001546828
 31
0.0
  0
SPLINE
  5
1825
100
AcDbEntity
  8
VHH-025
100
AcDbSpline
210
0.0
220
0.0
230
1.0
 70
     8
 71
     3
 72
    12
 73
     8
 74
     6
 42
0.0000001
 43
0.0000001
 44
0.0000000001
 40
0.0
 40
0.0
 40
0.0
 40
0.0
 40
0.5662025144864266
 40
1.132136061659262
 40
1.697787119143812
 40
2.263116602109281
 40
2.828292171028452
 40
2.828292171028452
 40
2.828292171028452
 40
2.828292171028452
 10
686.5436401599346
 20
349.6078597155219
 30
0.0
 10
686.5051059236608
 20
349.4209906306536
 30
0.0
 10
686.4280557563124
 20
349.0473412307022
 30
0.0
 10
686.0891472272929
 20
348.5795073738379
 30
0.0
 10
685.67391896469
 20
348.1881665273071
 30
0.0
 10
685.1414685179115
 20
347.9617161549872
 30
0.0
 10
684.7659048459861
 20
347.9205702874988
 30
0.0
 10
684.5781485758199
 20
347.9000001546828
 30
0.0
 11
686.5436401599346
 21
349.6078597155219
 31
0.0
 11
686.3907836707295
 21
349.0626806796826
 31
0.0
 11
686.0763319912295
 21
348.5921480866827
 31
0.0
 11
685.6542575717286
 21
348.215565687683
 31
0.0
 11
685.13624876623
 21
347.9891494741823
 31
0.0
 11
684.5781485758199
 21
347.9000001546828
 31
0.0
  0
SPLINE
  5
1826
100
AcDbEntity
  8
VHH-025
100
AcDbSpline
210
0.0
220
0.0
230
-1.0
 70
     8
 71
     3
 72
    13
 73
     9
 74
     7
 42
0.0000001
 43
0.0000001
 44
0.0000000001
 40
0.0
 40
0.0
 40
0.0
 40
0.0
 40
5.157331242127678
 40
11.03348381863846
 40
14.61916662718495
 40
16.78242660352463
 40
17.89174384221375
 40
18.52503597702228
 40
18.52503597702228
 40
18.52503597702228
 40
18.52503597702228
 10
686.9346307596098
 20
359.2000001114847
 30
0.0
 10
686.8456149789143
 20
360.9169780778866
 30
0.0
 10
686.6551765273591
 20
364.590243904698
 30
0.0
 10
686.5263925978196
 20
369.4602549082196
 30
0.0
 10
686.5052698104899
 20
373.3399900125478
 30
0.0
 10
686.7507850938027
 20
375.6167616270015
 30
0.0
 10
687.0288820644116
 20
376.8932364663031
 30
0.0
 10
687.2326989560822
 20
377.437658794143
 30
0.0
 10
687.3067692763726
 20
377.6355105809398
 30
0.0
 11
686.9346307596098
 21
359.2000001114847
 31
0.0
 11
686.6879554773624
 21
364.3514287333482
 31
0.0
 11
686.5317321706135
 21
370.2255042674951
 31
0.0
 11
686.5868097407111
 21
373.8107640439657
 31
0.0
 11
686.8391374841595
 21
375.9592575708629
 31
0.0
 11
687.0950901369544
 21
377.0386430328644
 31
0.0
 11
687.3067692763726
 21
377.6355105809398
 31
0.0
  0
SPLINE
  5
1827
100
AcDbEntity
  8
VHH-025
100
AcDbSpline
210
0.0
220
0.0
230
1.0
 70
     8
 71
     3
 72
    17
 73
    13
 74
    11
 42
0.0000001
 43
0.0000001
 44
0.0000000001
 40
0.0
 40
0.0
 40
0.0
 40
0.0
 40
0.5545798661035835
 40
1.653562178450133
 40
2.750923934510922
 40
3.848571212511746
 40
4.674193321130744
 40
5.488636099266462
 40
8.524172564827045
 40
12.84394436806087
 40
16.51294489443547
 40
20.18194542081123
 40
20.18194542081123
 40
20.18194542081123
 40
20.18194542081123
 10
687.579068308327
 20
378.0853574984503
 30
0.0
 10
687.6069781137617
 20
377.9026698175621
 30
0.0
 10
687.6901953408833
 20
377.3579593835031
 30
0.0
 10
687.9245266742937
 20
376.4646237353085
 30
0.0
 10
688.45586177409
 20
375.4910481188913
 30
0.0
 10
689.1248752645767
 20
374.7299702545471
 30
0.0
 10
689.8423804679172
 20
374.1564970038748
 30
0.0
 10
690.7156062582786
 20
372.8443091403933
 30
0.0
 10
691.530060619072
 20
370.2215989233569
 30
0.0
 10
692.5824136121213
 20
366.6990277768245
 30
0.0
 10
693.0121658155261
 20
362.8252619162194
 30
0.0
 10
693.3814075169443
 20
360.4084207388927
 30
0.0
 10
693.5660283676535
 20
359.2000001502292
 30
0.0
 11
687.579068308327
 21
378.0853574984503
 31
0.0
 11
687.6692809995184
 21
377.5381642069751
 31
0.0
 11
687.9665237072896
 21
376.4801429900198
 31
0.0
 11
688.4888294029225
 21
375.5150525362414
 31
0.0
 11
689.2105580146054
 21
374.6880474830641
 31
0.0
 11
689.8140055811238
 21
374.1245735256325
 31
0.0
 11
690.2857883028556
 21
373.4606924351255
 31
0.0
 11
691.3967291805767
 21
370.6357513738012
 31
0.0
 11
692.5076700582978
 21
366.4612767004773
 31
0.0
 11
693.0368492129747
 21
362.8306384253537
 31
0.0
 11
693.5660283676535
 21
359.2000001502292
 31
0.0
  0
LINE
  5
1828
100
AcDbEntity
  8
VHH-025
100
AcDbLine
 10
691.448766
 20
359.2
 30
0.0
 11
691.589542
 21
358.2
 31
0.0
  0
LINE
  5
1829
100
AcDbEntity
  8
VHH-025
100
AcDbLine
 10
679.870734
 20
347.9
 30
0.0
 11
680.077421
 21
347.9
 31
0.0
  0
LINE
  5
182A
100
AcDbEntity
  8
VHH-025
100
AcDbLine
 10
679.743955
 20
347.9
 30
0.0
 11
679.870734
 21
347.9
 31
0.0
  0
LINE
  5
182B
100
AcDbEntity
  8
VHH-025
100
AcDbLine
 10
679.674758
 20
347.9
 30
0.0
 11
679.743955
 21
347.9
 31
0.0
  0
LINE
  5
182C
100
AcDbEntity
  8
VHH-025
100
AcDbLine
 10
679.602399
 20
347.9
 30
0.0
 11
679.674758
 21
347.9
 31
0.0
  0
LINE
  5
182D
100
AcDbEntity
  8
VHH-025
100
AcDbLine
 10
679.28259
 20
347.9
 30
0.0
 11
679.602399
 21
347.9
 31
0.0
  0
LINE
  5
182E
100
AcDbEntity
  8
VHH-025
100
AcDbLine
 10
679.104559
 20
347.9
 30
0.0
 11
679.28259
 21
347.9
 31
0.0
  0
LINE
  5
182F
100
AcDbEntity
  8
VHH-025
100
AcDbLine
 10
678.914632
 20
347.9
 30
0.0
 11
679.104559
 21
347.9
 31
0.0
  0
LINE
  5
1830
100
AcDbEntity
  8
VHH-025
100
AcDbLine
 10
678.510988
 20
347.9
 30
0.0
 11
678.914632
 21
347.9
 31
0.0
  0
LINE
  5
1831
100
AcDbEntity
  8
VHH-025
100
AcDbLine
 10
678.078372
 20
347.9
 30
0.0
 11
678.510988
 21
347.9
 31
0.0
  0
ARC
  5
1832
100
AcDbEntity
  8
VHH-025
100
AcDbCircle
 10
677.892821
 20
346.9
 30
0.0
 40
1.6
100
AcDbArc
 50
270.0
 51
38.682187
  0
ARC
  5
1833
100
AcDbEntity
  8
VHH-025
100
AcDbCircle
 10
677.892821
 20
346.9
 30
0.0
 40
1.0
100
AcDbArc
 50
270.0
 51
90.0
  0
LINE
  5
1834
100
AcDbEntity
  8
VHH-025
100
AcDbLine
 10
693.58728
 20
358.2
 30
0.0
 11
692.509181
 21
349.479886
 31
0.0
  0
LINE
  5
1835
100
AcDbEntity
  8
VHH-025
100
AcDbLine
 10
686.956009
 20
358.2
 30
0.0
 11
686.54364
 21
349.60786
 31
0.0
  0
SPLINE
  5
1836
100
AcDbEntity
  8
VHH-025
100
AcDbSpline
210
0.0
220
0.0
230
-1.0
 70
     8
 71
     3
 72
    14
 73
    10
 74
     0
 42
0.0000001
 43
0.0000001
 40
0.0
 40
0.0
 40
0.0
 40
0.0
 40
8.543455177382728
 40
32.60806185346405
 40
34.09251365044104
 40
35.82256549595564
 40
37.21403762249804
 40
38.48665207093368
 40
38.6143838058074
 40
38.6143838058074
 40
38.6143838058074
 40
38.6143838058074
 10
582.3960996853822
 20
444.5729801514044
 30
0.0
 10
585.2453861633713
 20
444.5609811172362
 30
0.0
 10
596.1203434006312
 20
444.5151840433108
 30
0.0
 10
607.8900718789137
 20
444.4312267889308
 30
0.0
 10
616.5784639065369
 20
444.1590829833203
 30
0.0
 10
618.0299779902835
 20
443.4382751519187
 30
0.0
 10
618.860383416899
 20
442.1360331845171
 30
0.0
 10
618.8844746648684
 20
441.1915641575578
 30
0.0
 10
618.8941491212009
 20
440.7193440493383
 30
0.0
 10
618.8950118373833
 20
440.6762831537061
 30
0.0
  0
ARC
  5
1837
100
AcDbEntity
  8
VHH-025
100
AcDbCircle
 10
586.687416
 20
-282.949534
 30
0.0
 40
730.516587
100
AcDbArc
 50
87.19827
 51
90.336663
  0
LINE
  5
1838
100
AcDbEntity
  8
VHH-025
100
AcDbLine
 10
608.891733
 20
435.694917
 30
0.0
 11
611.391733
 21
431.36479
 31
0.0
  0
LINE
  5
1839
100
AcDbEntity
  8
VHH-025
100
AcDbLine
 10
608.891733
 20
435.694917
 30
0.0
 11
613.891733
 21
435.694917
 31
0.0
  0
CIRCLE
  5
183A
100
AcDbEntity
  8
VHH-025
100
AcDbCircle
 10
611.391733
 20
426.251541
 30
0.0
 40
2.0
  0
SPLINE
  5
183B
100
AcDbEntity
  8
VHH-025
100
AcDbSpline
210
0.0
220
0.0
230
1.0
 70
    11
 71
     3
 72
    42
 73
    38
 74
     0
 42
0.0000001
 43
0.0000001
 40
0.0
 40
0.0
 40
0.0
 40
0.0
 40
0.2020226795177207
 40
0.2020226795177207
 40
0.6060680385531623
 40
0.6060680385531623
 40
1.010113397588603
 40
1.010113397588603
 40
1.414158756624045
 40
1.414158756624045
 40
1.774897046242743
 40
1.774897046242743
 40
2.130089007394168
 40
2.130089007394168
 40
2.471304605574108
 40
2.471304605574108
 40
2.812520203754048
 40
2.812520203754048
 40
3.071352036479815
 40
3.071352036479815
 40
3.330183869205582
 40
3.330183869205582
 40
3.713842095799154
 40
3.713842095799154
 40
4.097500322392726
 40
4.097500322392726
 40
4.481158548986298
 40
4.481158548986298
 40
4.86481677557987
 40
4.86481677557987
 40
5.248475002173442
 40
5.248475002173442
 40
5.632133228767014
 40
5.632133228767014
 40
6.015791455360586
 40
6.015791455360586
 40
6.283185307179586
 40
6.283185307179586
 40
6.283185307179586
 40
6.283185307179586
 10
594.6417332733436
 20
412.7515412051125
 30
0.0
 10
594.6417332733436
 20
412.3265904103545
 30
0.0
 10
594.6957433590724
 20
411.9013417411033
 30
0.0
 10
595.0148364137058
 20
410.654096062337
 30
0.0
 10
595.4403415362468
 20
409.860926107618
 30
0.0
 10
596.6369263330927
 20
408.4790038834662
 30
0.0
 10
597.4093395424444
 20
407.8898772556758
 30
0.0
 10
599.1732502932446
 20
407.003690030795
 30
0.0
 10
600.1659418370637
 20
406.7063473105135
 30
0.0
 10
602.1050495192577
 20
406.4614637977738
 30
0.0
 10
603.04571277779
 20
406.4794103879957
 30
0.0
 10
604.8458636492797
 20
406.7772000669992
 30
0.0
 10
605.7068130450499
 20
407.0538852357513
 30
0.0
 10
607.2288612827507
 20
407.8154870706057
 30
0.0
 10
607.8958665622268
 20
408.2932424144146
 30
0.0
 10
608.9972591503975
 20
409.4038874728248
 30
0.0
 10
609.4297184315875
 20
410.0380687967962
 30
0.0
 10
609.9381531956643
 20
411.2281355356808
 30
0.0
 10
610.0744879266605
 20
411.7651042954276
 30
0.0
 10
610.169150190217
 20
412.8515718385588
 30
0.0
 10
610.1289593131951
 20
413.400581862621
 30
0.0
 10
609.81344398882
 20
414.7259645525427
 30
0.0
 10
609.4319812688665
 20
415.485701366967
 30
0.0
 10
608.3510035432174
 20
416.8293372304779
 30
0.0
 10
607.6496085014952
 20
417.4131430493925
 30
0.0
 10
606.0326394396725
 20
418.3273077638204
 30
0.0
 10
605.1157778615216
 20
418.6565872070278
 30
0.0
 10
603.1976965952781
 20
419.0183942672375
 30
0.0
 10
602.1959390726989
 20
419.0493936915699
 30
0.0
 10
600.2488310670706
 20
418.8106613931477
 30
0.0
 10
599.3037193399215
 20
418.539252533792
 30
0.0
 10
597.6034139589811
 20
417.7317625395244
 30
0.0
 10
596.8491239241212
 20
417.1939434962241
 30
0.0
 10
595.6405692685694
 20
415.9259033370144
 30
0.0
 10
595.188154810694
 20
415.1936092189353
 30
0.0
 10
594.736268476736
 20
413.8767025127708
 30
0.0
 10
594.6417332733436
 20
413.3139989950759
 30
0.0
 10
594.6417332733436
 20
412.7515412051125
 30
0.0
  0
SPLINE
  5
183C
100
AcDbEntity
  8
VHH-025
100
AcDbSpline
210
0.0
220
0.0
230
-1.0
 70
     8
 71
     3
 72
    20
 73
    16
 74
     0
 42
0.0000001
 43
0.0000001
 40
0.0
 40
0.0
 40
0.0
 40
0.0
 40
0.411372432094715
 40
0.411372432094715
 40
0.7549641539760199
 40
0.7549641539760199
 40
1.460265566936419
 40
1.460265566936419
 40
1.780008105651267
 40
1.780008105651267
 40
2.128014443002301
 40
2.128014443002301
 40
2.476020780353334
 40
2.476020780353334
 40
2.570156969732271
 40
2.570156969732271
 40
2.570156969732271
 40
2.570156969732271
 10
526.576829931817
 20
424.2800127985574
 30
0.0
 10
526.7155511328748
 20
424.2697873846682
 30
0.0
 10
526.8377503761676
 20
424.2601437260482
 30
0.0
 10
527.0254283454161
 20
424.2325845736513
 30
0.0
 10
527.0964677419216
 20
424.2165616940019
 30
0.0
 10
527.2731378906902
 20
424.1578439158929
 30
0.0
 10
527.3702537630998
 20
424.094579382825
 30
0.0
 10
527.4769071110696
 20
423.9755918343962
 30
0.0
 10
527.5055078020614
 20
423.9339537645519
 30
0.0
 10
527.5493979826534
 20
423.8489294260579
 30
0.0
 10
527.561901499792
 20
423.813886601878
 30
0.0
 10
527.5865172913892
 20
423.6890743607
 30
0.0
 10
527.595220974381
 20
423.6031906175985
 30
0.0
 10
527.6035933616623
 20
423.4677466571975
 30
0.0
 10
527.6052847514985
 20
423.4374127361125
 30
0.0
 10
527.607051565783
 20
423.4056418385062
 30
0.0
  0
SPLINE
  5
183D
100
AcDbEntity
  8
VHH-025
100
AcDbSpline
210
0.0
220
0.0
230
-1.0
 70
     8
 71
     3
 72
    11
 73
     7
 74
     5
 42
0.0000001
 43
0.0000001
 44
0.0000000001
 40
0.0
 40
0.0
 40
0.0
 40
0.0
 40
0.8012084873059352
 40
1.355387018408663
 40
1.955784421317553
 40
2.570156969731447
 40
2.570156969731447
 40
2.570156969731447
 40
2.570156969731447
 10
526.6282887051603
 20
424.978118803865
 30
0.0
 10
526.8984687050465
 20
424.9582033021069
 30
0.0
 10
527.355526350193
 20
424.9245126797838
 30
0.0
 10
527.9314913685423
 20
424.578662864952
 30
0.0
 10
528.2716410278397
 20
424.0618438529636
 30
0.0
 10
528.2944406856237
 20
423.651859850073
 30
0.0
 10
528.3059716622012
 20
423.4445095477458
 30
0.0
 11
526.6282887051603
 21
424.978118803865
 31
0.0
 11
527.4185945810732
 21
424.8463930940415
 31
0.0
 11
527.8906942846298
 21
424.5561591983005
 31
0.0
 11
528.2174624049877
 21
424.0524731483274
 31
0.0
 11
528.3059716622012
 21
423.4445095477458
 31
0.0
  0
SPLINE
  5
183E
100
AcDbEntity
  8
VHH-025
100
AcDbSpline
210
0.0
220
0.0
230
-1.0
 70
     8
 71
     3
 72
    14
 73
    10
 74
     0
 42
0.0000001
 43
0.0000001
 40
0.0
 40
0.0
 40
0.0
 40
0.0
 40
8.543455177382728
 40
32.60806185346405
 40
34.09251365044104
 40
35.82256549595564
 40
37.21403762249804
 40
38.48665207093368
 40
38.6143838058074
 40
38.6143838058074
 40
38.6143838058074
 40
38.6143838058074
 10
582.3917332733437
 20
444.5729801514044
 30
0.0
 10
579.5424467953563
 20
444.5609811172362
 30
0.0
 10
568.6674895580964
 20
444.5151840433108
 30
0.0
 10
556.8977610798139
 20
444.4312267889308
 30
0.0
 10
548.2093690521907
 20
444.1590829833203
 30
0.0
 10
546.7578549684441
 20
443.4382751519187
 30
0.0
 10
545.9274495418286
 20
442.1360331845171
 30
0.0
 10
545.9033582938592
 20
441.1915641575578
 30
0.0
 10
545.8936838375267
 20
440.7193440493383
 30
0.0
 10
545.8928211213443
 20
440.6762831537061
 30
0.0
  0
ARC
  5
183F
100
AcDbEntity
  8
VHH-025
100
AcDbCircle
 10
578.100417
 20
-282.949534
 30
0.0
 40
730.516587
100
AcDbArc
 50
89.663337
 51
92.80173
  0
LINE
  5
1840
100
AcDbEntity
  8
VHH-025
100
AcDbLine
 10
575.891733
 20
407.001541
 30
0.0
 11
588.891733
 21
407.001541
 31
0.0
  0
LINE
  5
1841
100
AcDbEntity
  8
VHH-025
100
AcDbLine
 10
587.457433
 20
416.154619
 30
0.0
 11
584.745377
 21
416.154619
 31
0.0
  0
LINE
  5
1842
100
AcDbEntity
  8
VHH-025
100
AcDbLine
 10
575.891733
 20
418.501541
 30
0.0
 11
588.891733
 21
418.501541
 31
0.0
  0
SPLINE
  5
1843
100
AcDbEntity
  8
VHH-025
100
AcDbSpline
210
0.0
220
0.0
230
1.0
 70
    11
 71
     3
 72
    42
 73
    38
 74
     0
 42
0.0000001
 43
0.0000001
 40
0.0
 40
0.0
 40
0.0
 40
0.0
 40
0.2020226795172709
 40
0.2020226795172709
 40
0.6060680385518129
 40
0.6060680385518129
 40
1.010113397586354
 40
1.010113397586354
 40
1.414158756620896
 40
1.414158756620896
 40
1.774897046269892
 40
1.774897046269892
 40
2.130089007588556
 40
2.130089007588556
 40
2.471304605639319
 40
2.471304605639319
 40
2.812520203690082
 40
2.812520203690082
 40
3.071352036382359
 40
3.071352036382359
 40
3.330183869074637
 40
3.330183869074637
 40
3.713842095834065
 40
3.713842095834065
 40
4.097500322593494
 40
4.097500322593494
 40
4.481158549352922
 40
4.481158549352922
 40
4.864816776112351
 40
4.864816776112351
 40
5.24847500287178
 40
5.24847500287178
 40
5.632133229631208
 40
5.632133229631208
 40
6.015791456390637
 40
6.015791456390637
 40
6.283185307179586
 40
6.283185307179586
 40
6.283185307179586
 40
6.283185307179586
 10
554.6417332733437
 20
412.7515412051125
 30
0.0
 10
554.6417332733454
 20
412.3265904103554
 30
0.0
 10
554.6957433590725
 20
411.9013417411061
 30
0.0
 10
555.014836413704
 20
410.6540960623424
 30
0.0
 10
555.4403415362432
 20
409.8609261076253
 30
0.0
 10
556.6369263330853
 20
408.4790038834744
 30
0.0
 10
557.4093395424316
 20
407.889877255684
 30
0.0
 10
559.1732502932282
 20
407.0036900308023
 30
0.0
 10
560.1659418370419
 20
406.706347310519
 30
0.0
 10
562.1050495193104
 20
406.4614637977647
 30
0.0
 10
563.0457127779228
 20
406.4794103879976
 30
0.0
 10
564.8458636498982
 20
406.7772000671211
 30
0.0
 10
565.7068130460522
 20
407.0538852360832
 30
0.0
 10
567.2288612836529
 20
407.8154870712187
 30
0.0
 10
567.8958665627962
 20
408.2932424149139
 30
0.0
 10
568.9972591504612
 20
409.4038874729612
 30
0.0
 10
569.429718431482
 20
410.0380687966862
 30
0.0
 10
569.9381531955151
 20
411.2281355352206
 30
0.0
 10
570.0744879265477
 20
411.7651042948891
 30
0.0
 10
570.1691501902224
 20
412.8515718378712
 30
0.0
 10
570.1289593132825
 20
413.4005818618652
 30
0.0
 10
569.8134439890601
 20
414.725964552098
 30
0.0
 10
569.4319812689829
 20
415.485701366877
 30
0.0
 10
568.3510035428063
 20
416.8293372309363
 30
0.0
 10
567.6496085006875
 20
417.4131430500456
 30
0.0
 10
566.0326394379445
 20
418.3273077646036
 30
0.0
 10
565.1157778592679
 20
418.6565872077517
 30
0.0
 10
563.1976965920349
 20
419.0183942675503
 30
0.0
 10
562.1959390689863
 20
419.0493936915409
 30
0.0
 10
560.248831062676
 20
418.8106613921827
 30
0.0
 10
559.3037193353012
 20
418.5392525322404
 30
0.0
 10
557.6034139543172
 20
417.7317625366659
 30
0.0
 10
556.8491239196247
 20
417.1939434926444
 30
0.0
 10
555.6405692649006
 20
415.925903332025
 30
0.0
 10
555.1881548076672
 20
415.1936092132509
 30
0.0
 10
554.7362684760011
 20
413.8767025084434
 30
0.0
 10
554.6417332733437
 20
413.3139989929086
 30
0.0
 10
554.6417332733437
 20
412.7515412051125
 30
0.0
  0
CIRCLE
  5
1844
100
AcDbEntity
  8
VHH-025
100
AcDbCircle
 10
524.581307
 20
413.754525
 30
0.0
 40
2.21318
  0
LINE
  5
1845
100
AcDbEntity
  8
VHH-025
100
AcDbLine
 10
560.891733
 20
415.751541
 30
0.0
 11
560.891733
 21
413.001541
 31
0.0
  0
LINE
  5
1846
100
AcDbEntity
  8
VHH-025
100
AcDbLine
 10
563.891733
 20
413.001541
 30
0.0
 11
563.891733
 21
415.751541
 31
0.0
  0
LINE
  5
1847
100
AcDbEntity
  8
VHH-025
100
AcDbLine
 10
578.23604
 20
415.901023
 30
0.0
 11
577.707924
 21
413.260446
 31
0.0
  0
LINE
  5
1848
100
AcDbEntity
  8
VHH-025
100
AcDbLine
 10
580.982391
 20
413.202091
 30
0.0
 11
581.511029
 21
415.845282
 31
0.0
  0
LINE
  5
1849
100
AcDbEntity
  8
VHH-025
100
AcDbLine
 10
575.141733
 20
407.751541
 30
0.0
 11
575.141733
 21
417.751541
 31
0.0
  0
LINE
  5
184A
100
AcDbEntity
  8
VHH-025
100
AcDbLine
 10
584.43604
 20
415.901023
 30
0.0
 11
583.907924
 21
413.260446
 31
0.0
  0
LINE
  5
184B
100
AcDbEntity
  8
VHH-025
100
AcDbLine
 10
562.214957
 20
409.574765
 30
0.0
 11
559.214957
 21
412.574765
 31
0.0
  0
LINE
  5
184C
100
AcDbEntity
  8
VHH-025
100
AcDbLine
 10
560.891733
 20
413.001541
 30
0.0
 11
559.391733
 21
413.001541
 31
0.0
  0
CIRCLE
  5
184D
100
AcDbEntity
  8
VHH-025
100
AcDbCircle
 10
524.581307
 20
413.754525
 30
0.0
 40
1.51318
  0
ARC
  5
184E
100
AcDbEntity
  8
VHH-025
100
AcDbCircle
 10
559.391733
 20
412.751541
 30
0.0
 40
0.25
100
AcDbArc
 50
90.0
 51
225.0
  0
LINE
  5
184F
100
AcDbEntity
  8
VHH-025
100
AcDbLine
 10
586.463615
 20
409.608215
 30
0.0
 11
586.991731
 21
412.248792
 31
0.0
  0
LINE
  5
1850
100
AcDbEntity
  8
VHH-025
100
AcDbLine
 10
563.891733
 20
413.001541
 30
0.0
 11
565.391733
 21
413.001541
 31
0.0
  0
ARC
  5
1851
100
AcDbEntity
  8
VHH-025
100
AcDbCircle
 10
565.391733
 20
412.751541
 30
0.0
 40
0.25
100
AcDbArc
 50
315.0
 51
90.0
  0
LINE
  5
1852
100
AcDbEntity
  8
VHH-025
100
AcDbLine
 10
562.56851
 20
409.574765
 30
0.0
 11
565.56851
 21
412.574765
 31
0.0
  0
ARC
  5
1853
100
AcDbEntity
  8
VHH-025
100
AcDbCircle
 10
562.391733
 20
409.751541
 30
0.0
 40
0.25
100
AcDbArc
 50
225.0
 51
315.0
  0
LINE
  5
1854
100
AcDbEntity
  8
VHH-025
100
AcDbLine
 10
580.263615
 20
409.608215
 30
0.0
 11
580.791731
 21
412.248792
 31
0.0
  0
LINE
  5
1855
100
AcDbEntity
  8
VHH-025
100
AcDbLine
 10
577.688513
 20
412.751541
 30
0.0
 11
580.811142
 21
412.757697
 31
0.0
  0
CIRCLE
  5
1856
100
AcDbEntity
  8
VHH-025
100
AcDbCircle
 10
581.52477
 20
409.354619
 30
0.0
 40
0.025
  0
LINE
  5
1857
100
AcDbEntity
  8
VHH-025
100
AcDbLine
 10
583.717264
 20
412.307147
 30
0.0
 11
583.188626
 21
409.663956
 31
0.0
  0
ARC
  5
1858
100
AcDbEntity
  8
VHH-025
100
AcDbCircle
 10
575.891733
 20
407.751541
 30
0.0
 40
0.75
100
AcDbArc
 50
180.0
 51
270.0
  0
LINE
  5
1859
100
AcDbEntity
  8
VHH-025
100
AcDbLine
 10
577.517264
 20
412.307147
 30
0.0
 11
576.988626
 21
409.663956
 31
0.0
  0
LINE
  5
185A
100
AcDbEntity
  8
VHH-025
100
AcDbLine
 10
577.242222
 20
409.354619
 30
0.0
 11
579.954278
 21
409.354619
 31
0.0
  0
LINE
  5
185B
100
AcDbEntity
  8
VHH-025
100
AcDbLine
 10
583.888513
 20
412.751541
 30
0.0
 11
587.011142
 21
412.757697
 31
0.0
  0
LINE
  5
185C
100
AcDbEntity
  8
VHH-025
100
AcDbLine
 10
583.442222
 20
409.354619
 30
0.0
 11
586.154278
 21
409.354619
 31
0.0
  0
ARC
  5
185D
100
AcDbEntity
  8
VHH-025
100
AcDbCircle
 10
561.141733
 20
415.751541
 30
0.0
 40
0.25
100
AcDbArc
 50
90.0
 51
180.0
  0
LINE
  5
185E
100
AcDbEntity
  8
VHH-025
100
AcDbLine
 10
563.641733
 20
416.001541
 30
0.0
 11
561.141733
 21
416.001541
 31
0.0
  0
ARC
  5
185F
100
AcDbEntity
  8
VHH-025
100
AcDbCircle
 10
563.641733
 20
415.751541
 30
0.0
 40
0.25
100
AcDbArc
 50
0.0
 51
90.0
  0
LINE
  5
1860
100
AcDbEntity
  8
VHH-025
100
AcDbLine
 10
581.257433
 20
416.154619
 30
0.0
 11
578.545377
 21
416.154619
 31
0.0
  0
ARC
  5
1861
100
AcDbEntity
  8
VHH-025
100
AcDbCircle
 10
575.891733
 20
417.751541
 30
0.0
 40
0.75
100
AcDbArc
 50
90.0
 51
180.0
  0
SPLINE
  5
1862
100
AcDbEntity
  8
VHH-025
100
AcDbSpline
210
0.0
220
0.0
230
-1.0
 70
     8
 71
     3
 72
    20
 73
    16
 74
     0
 42
0.0000001
 43
0.0000001
 40
3.141592653589793
 40
3.141592653589793
 40
3.141592653589793
 40
3.141592653589793
 40
3.566852563487359
 40
3.566852563487359
 40
4.097334864786621
 40
4.097334864786621
 40
4.627817166085884
 40
4.627817166085884
 40
5.158299467385146
 40
5.158299467385146
 40
5.688781768684408
 40
5.688781768684408
 40
6.21926406998367
 40
6.21926406998367
 40
6.283185307179586
 40
6.283185307179586
 40
6.283185307179586
 40
6.283185307179586
 10
605.4917332733459
 20
412.2015412051123
 30
0.0
 10
605.4917332733459
 20
412.2951729922915
 30
0.0
 10
605.4686715123572
 20
412.3890425354893
 30
0.0
 10
605.3645770329495
 20
412.5875422148746
 30
0.0
 10
605.2694868893596
 20
412.6888274928806
 30
0.0
 10
605.022964996013
 20
412.8392383784958
 30
0.0
 10
604.872065867763
 20
412.8874160518553
 30
0.0
 10
604.5607277110067
 20
412.9102103415662
 30
0.0
 10
604.401175135583
 20
412.8847236991332
 30
0.0
 10
604.1242748318873
 20
412.7704091463674
 30
0.0
 10
604.0076971640139
 20
412.6822256169398
 30
0.0
 10
603.8468460866644
 20
412.4767128055973
 30
0.0
 10
603.8019427301261
 20
412.3604139383415
 30
0.0
 10
603.7922540468535
 20
412.2296890004626
 30
0.0
 10
603.7917332733451
 20
412.215615091547
 30
0.0
 10
603.7917332733451
 20
412.2015412051123
 30
0.0
  0
SPLINE
  5
1863
100
AcDbEntity
  8
VHH-025
100
AcDbSpline
210
0.0
220
0.0
230
1.0
 70
     8
 71
     3
 72
    20
 73
    16
 74
     0
 42
0.0000001
 43
0.0000001
 40
3.141592653589793
 40
3.141592653589793
 40
3.141592653589793
 40
3.141592653589793
 40
3.566852563487359
 40
3.566852563487359
 40
4.097334864786621
 40
4.097334864786621
 40
4.627817166085884
 40
4.627817166085884
 40
5.158299467385146
 40
5.158299467385146
 40
5.688781768684408
 40
5.688781768684408
 40
6.21926406998367
 40
6.21926406998367
 40
6.283185307179586
 40
6.283185307179586
 40
6.283185307179586
 40
6.283185307179586
 10
603.7917332733451
 20
410.9015412051121
 30
0.0
 10
603.7917332733451
 20
410.8079094179329
 30
0.0
 10
603.8147950343319
 20
410.714039874736
 30
0.0
 10
603.9188895137414
 20
410.5155401953506
 30
0.0
 10
604.0139796573295
 20
410.4142549173448
 30
0.0
 10
604.2605015506762
 20
410.2638440317277
 30
0.0
 10
604.4114006789278
 20
410.21566635837
 30
0.0
 10
604.7227388356843
 20
410.1928720686592
 30
0.0
 10
604.8822914111061
 20
410.2183587110903
 30
0.0
 10
605.1591917148035
 20
410.3326732638579
 30
0.0
 10
605.2757693826753
 20
410.4208567932846
 30
0.0
 10
605.4366204600265
 20
410.626369604628
 30
0.0
 10
605.481523816563
 20
410.742668471883
 30
0.0
 10
605.4912124998374
 20
410.8733934097617
 30
0.0
 10
605.4917332733459
 20
410.8874673186765
 30
0.0
 10
605.4917332733459
 20
410.9015412051121
 30
0.0
  0
LINE
  5
1864
100
AcDbEntity
  8
VHH-025
100
AcDbLine
 10
600.291733
 20
415.551541
 30
0.0
 11
600.291733
 21
412.351541
 31
0.0
  0
LINE
  5
1865
100
AcDbEntity
  8
VHH-025
100
AcDbLine
 10
589.641733
 20
407.751541
 30
0.0
 11
589.641733
 21
417.751541
 31
0.0
  0
LINE
  5
1866
100
AcDbEntity
  8
VHH-025
100
AcDbLine
 10
587.182391
 20
413.202091
 30
0.0
 11
587.711029
 21
415.845282
 31
0.0
  0
LINE
  5
1867
100
AcDbEntity
  8
VHH-025
100
AcDbLine
 10
603.741733
 20
415.551541
 30
0.0
 11
600.541733
 21
409.951541
 31
0.0
  0
LINE
  5
1868
100
AcDbEntity
  8
VHH-025
100
AcDbLine
 10
603.791733
 20
412.201541
 30
0.0
 11
603.791733
 21
410.901541
 31
0.0
  0
ARC
  5
1869
100
AcDbEntity
  8
VHH-025
100
AcDbCircle
 10
588.891733
 20
407.751541
 30
0.0
 40
0.75
100
AcDbArc
 50
270.0
 51
0.0
  0
CIRCLE
  5
186A
100
AcDbEntity
  8
VHH-025
100
AcDbCircle
 10
587.72477
 20
409.354619
 30
0.0
 40
0.025
  0
LINE
  5
186B
100
AcDbEntity
  8
VHH-025
100
AcDbLine
 10
605.491733
 20
412.201541
 30
0.0
 11
605.491733
 21
410.901541
 31
0.0
  0
ARC
  5
186C
100
AcDbEntity
  8
VHH-025
100
AcDbCircle
 10
588.891733
 20
417.751541
 30
0.0
 40
0.75
100
AcDbArc
 50
0.0
 51
90.0
  0
SPLINE
  5
186D
100
AcDbEntity
  8
VHH-025
100
AcDbSpline
210
0.0
220
0.0
230
-1.0
 70
     8
 71
     3
 72
    15
 73
    11
 74
     9
 42
0.0000001
 43
0.0000001
 44
0.0000000001
 40
0.0
 40
0.0
 40
0.0
 40
0.0
 40
8.727930916723018
 40
16.2576332325584
 40
20.36216076943267
 40
21.62307303412766
 40
23.69549543386408
 40
25.38624445710645
 40
45.72281463408907
 40
79.43205808847057
 40
79.43205808847057
 40
79.43205808847057
 40
79.43205808847057
 10
687.5319374510419
 20
421.700000154683
 30
0.0
 10
686.8331588939797
 20
424.5165902787395
 30
0.0
 10
685.5315347633712
 20
429.7630902384972
 30
0.0
 10
683.601447806368
 20
436.357166517708
 30
0.0
 10
681.295029128383
 20
439.9812058379048
 30
0.0
 10
679.7567753094519
 20
441.9824605104726
 30
0.0
 10
678.0670277362085
 20
442.520561818944
 30
0.0
 10
670.1310050171689
 20
443.3052661239011
 30
0.0
 10
651.5700825275302
 20
445.221637583763
 30
0.0
 10
633.6019962138732
 20
446.2672750766858
 30
0.0
 10
622.395011708326
 20
446.9194560033047
 30
0.0
 11
687.5319374510419
 21
421.700000154683
 31
0.0
 11
685.366603562261
 21
430.1550641542744
 31
0.0
 11
682.8670814670768
 21
437.2577964638003
 31
0.0
 11
680.6986462269507
 21
440.7427691911452
 31
0.0
 11
679.8628319543824
 21
441.6868635937499
 31
0.0
 11
677.9466835928944
 21
442.476363473228
 31
0.0
 11
676.2705749550079
 21
442.6983817013024
 31
0.0
 11
656.0275569533443
 21
444.6467935539821
 31
0.0
 11
622.395011708326
 21
446.9194560033047
 31
0.0
  0
LINE
  5
186E
100
AcDbEntity
  8
VHH-025
100
AcDbLine
 10
611.391733
 20
431.36479
 30
0.0
 11
613.891733
 21
435.694917
 31
0.0
  0
ENDSEC
  0
SECTION
  2
OBJECTS
  0
DICTIONARY
  5
C
100
AcDbDictionary
  3
ACAD_GROUP
350
D
  3
ACAD_MLINESTYLE
350
E
  3
AMACAD
350
975
  0
DICTIONARY
  5
D
102
{ACAD_REACTORS
330
C
102
}
100
AcDbDictionary
  0
DICTIONARY
  5
E
102
{ACAD_REACTORS
330
C
102
}
100
AcDbDictionary
  3
STANDARD
350
1B
  0
DICTIONARY
  5
975
102
{ACAD_REACTORS
330
C
102
}
100
AcDbDictionary
  3
AM_LOADER
350
976
  0
MLINESTYLE
  5
1B
102
{ACAD_REACTORS
330
E
102
}
100
AcDbMlineStyle
  2
STANDARD
 70
     0
  3

 62
     0
 51
90.0
 52
90.0
 71
     2
 49
0.5
 62
   256
  6
BYLAYER
 49
-0.5
 62
   256
  6
BYLAYER
  0
AMLOADER
  5
976
102
{ACAD_REACTORS
330
975
102
}
100
AMLoader
 90
        1
 70
     3
 70
     0
 70
   921
 70
   861
280
     0
  0
ENDSEC
  0
EOF
